» » »

Tegan And Sara, Umbrella Tabs (ver.1)

Artists:  A B C D E F G H I J K L M N O P Q R S T U V W X Y Z # 

Umbrella Tabs (ver.1)

Tegan And Sara Tabs
Rating:
0/5 (0 votes)
Umbrella lessons Tabs too difficult? Try these video lessons and learn fast
                The cover they did on their 2007 tour(s). 

SARA (guitar)
"You had my heart . . ."
e|-------|	|-----|		|-------|
B|-------|	|-----|		|-------|
G|----10-|	|---8-|		|----10-|
D|--8----| x8	|-6---| x8	|-10----| x16
A|-------|	|-----|		|-------|
E|-------|	|-----|		|-------|

"When the sun shines . . ."
Looks like (to me, anyways):
e|------------|
B|-------9----|
G|-11---10----|
D|-11-8-11-11-|
A|--9-8-11-11-|
E|----6-----9-|
OR
What I think sounds better:
e|-------------|
B|-------------|
G|-11----13----|
D|-11-11-13-11-|
A|--9-11-11-11-|
E|-----9-----9-|

"Ella ella . . ."
e|-------|	|-----|
B|-------|	|-----|
G|----10-|	|---8-|
D|--8----| x8	|-6---| x8
A|-------|	|-----|
E|-------|	|-----|


TEGAN (guitar)
"When the sun shines . . ."
e|---------|
B|---------|
G|---6-----|
D|-4-6-6-8-|
A|-4-4-6-8-|
E|-2---4-6-|

"Ella ella . . ." (The second time around)
e|---------------------------------|
B|---------------------------------|
G|---------------------------------|
D|---------------------------------| x4
A|-----8-8-6-6-4-4-----6-6-4-4-----|
E|-6-6-------------4-4---------4-4-|

TED (keyboard)
The little riff during the verse
e|-9----11-----|
B|---11----9-9-|
G|-------------|
D|-------------|
A|-------------|
E|-------------|

I couldn't hear/figure out any other keyboard part :(
            
Submit corrections

comments powered by Disqus
↑ Back to top | Tegan And Sara Tabs for Umbrella. Lyrics for acoustic guitar and electric guitar. Tablatures and chords are parodies/interpretations of the original songs. You may use it for private study, scholarship, research or language learning purposes only