» » »

On Directing Bass tabs (ver.3)

Artists:  A B C D E F G H I J K L M N O P Q R S T U V W X Y Z # 

On Directing Bass tabs (ver.3)

Tegan And Sara
Rating:
0/5 (0 votes)

Tabs too difficult? Try these video lessons and learn fast.
                -------------------------------------------------------------------------------
     ON DIRECTING - Tegan and Sara
-------------------------------------------------------------------------------
just wrote down what I saw him playing)


(DROP D TUNING)
(*Bass comes in at 00:14 -- When Sara begins to sing*)

(Verse)
"You're directing me..."

G|---------------------------------------------------------------------------|
D|-------------3-3----------3-3----------------------------------------------|
A|-1-1-1-1-1-1------1-1-1-1----1-1--------3-3-3-3-3-3-3-1-3-3-3-3-3-3-3-3----|
D|---------------------------------------------------------------------------|

"Get the cuts..."
G|---------------------------------------------------------------------------|
D|-------------3-3----------3-3----------------------------------------------|
A|-1-1-1-1-1-1------1-1-1-1----1-1--------3-3-3-3-3-3-3-1-3-3-3-3-5-5-5-5----|
D|---------------------------------------------------------------------------|


(Chorus)
"Go steady with me..."
G|---------------------------------------------------------------------------|
D|---------------------------------------------------------------------------|
A|---------------------------------------------------------------------------|       (X2)
D|-1-1-1-1-1-1-1-1-1-1-1-1-1-1-1-1--5-5-5-5-5-5-5-5-5-5-5-5-5-5-5-5----------|


(Verse 2)
"You're directing me..."

G|---------------------------------------------------------------------------|
D|-------------3-3----------3-3----------------------------------------------|
A|-1-1-1-1-1-1------1-1-1-1----1-1--------3-3-3-3-3-3-3-1-3-3-3-3-3-3-3-3----|
D|---------------------------------------------------------------------------|

"Make those eyes at me..."
G|---------------------------------------------------------------------------|
D|-------------3-3----------3-3----------------------------------------------|
A|-1-1-1-1-1-1------1-1-1-1----1-1--------3-3-3-3-3-3-3-1-3-3-3-3-5-5-5-5----|
D|---------------------------------------------------------------------------|


(Chorus 2)
"Go steady...I know it..."

G|---------------------------------------------------------------------------|
D|-----------------------------------5-5-5-5-5-5-5-5-5-5-5-5-5h7/8-----------|
A|-6-6-6-6-6-6-6-6-6-6-6-6-8-8-8-8-------------------------------------------|
D|---------------------------------------------------------------------------|

"I get talking..."
G|---------------------------------------------------------------------------|
D|----------------------------7h8----5-5-5-5-5-5-5-5-5-5-5h7/8---------------|
A|-6-6-6-6-6-6-6-6-6-6-6-6-6-----8-----------------------------1-1-1---------|
D|---------------------------------------------------------------------------|

"Go steady...I know it..."
G|---------------------------------------------------------------------------|
D|----------------------------7-8----5-5-5-5-5-5-5-5-5-5-5-5-5h7/8-----------|
A|-6-6-6-6-6-6-6-6-6-6-6-6-6-----8-------------------------------------------|
D|---------------------------------------------------------------------------|

"I get talking..."
G|---------------------------------------------------------------------------|
D|----------------------------7-8----5-5-5-5-5-5-5-5-5-5-5h7/8---------------|
A|-6-6-6-6-6-6-6-6-6-6-6-6-6-----8-----------------------------1-1-1---------|
D|---------------------------------------------------------------------------|


(Bridge)
"(Hold onto me) You're directing me..."
G|---------------------------------------------------------------------------|
D|---------------------------------------------------------------------------|
A|---------------------------------------------------------------------------|      (2x)
D|-8-8-8-8-8-8-8-8-5-5-5-5-3-3-3-3-8-8-8-8-8-8-8-8-5-5-5-5-3-3-3-3-----------|

G|---------------------------------------------------------------------------|
D|-8-8-8-8-8-8-8-8-5-5-5-5-3-3-3-3-8-8-8-8-8-8-8-8-5-5-5-5-3-3-3-3-----------|      (2x)
A|---------------------------------------------------------------------------|
D|---------------------------------------------------------------------------|

(Chorus 3)
"Go steady...I know it..."
G|---------------------------------------------------------------------------|
D|----------------------------7-8----5-5-5-5-5-5-5-5-5-5-5-5-5h7/8-----------|
A|-6-6-6-6-6-6-6-6-6-6-6-6-6-----8-------------------------------------------|
D|---------------------------------------------------------------------------|
                                                                                    (4x)
"I get talking..."                  
G|---------------------------------------------------------------------------|
D|----------------------------7h8----5-5-5-5-5-5-5-5-5-5-5h7/8---------------|
A|-6-6-6-6-6-6-6-6-6-6-6-6-6-----8-----------------------------1-1-1---------|
D|---------------------------------------------------------------------------|


Verse 1 (1x)
Chorus (1x)
Verse 2 (1x)
Chorus 2 (1x)
Bridge (1x)
Chorus 3 (4x)

============================================================================
            
Tabs too difficult? Try these video lessons and learn fast.




comments powered by Disqus
↑ Back to top | Tablatures and chords are parodies/interpretations of the original songs. You may use it for private study, scholarship, research or language learning purposes only