» » »

On Directing Tabs (ver.3)

Artists:  A B C D E F G H I J K L M N O P Q R S T U V W X Y Z # 

On Directing Tabs (ver.3)

Tegan And Sara
Rating:
0/5 (0 votes)

Hard to play? Try these video lessons and learn fast.
                Tuning: E G D G B e

I found some mistakes on the other version i did, but i'm pretty sure this is 100% 
accurate :) Enjoy!

Sara's part:

Intro/Verse:
e|-----------------------------------------|
B|-----------------------------------------|
G|-----------------------------------------|
D|--1010101010101010---121212121212121212--|
G|--1010101010101010---121212121212121212--|
E|--8888888888888888---101010101010101010--|

Chorus ("Go steady with me..."):
e|-----------------------------------------------------|
B|-----------------------------------------------------|
G|--8888888888888888--12121212121212121212121212121212-|
D|--8888888888888888--12121212121212121212121212121212-|
G|--8888888888888888--12121212121212121212121212121212-|
E|-----------------------------------------------------|




Tegan's part (Standard Tuning!):
Verse (0:13):
e|---------------------------------------------------------------------|
B|---------------------------------------------------------------------|
G|---------------------------------------------------------------------|
D|--10101010101010101010101010101010-12121212121212121212121212121212--|
A|---------------------------------------------------------------------|
E|---------------------------------------------------------------------|
P.M. ******************************* ********************************


Chorus ("Go steady with me..") 0:27:
e|------------------------------------------------------------------|
B|------------------------------------------------------------------|
G|---------------------------10--------------------------10-12------|
D|---12------12------12----8---8----12-----12-----12---8------------|
A|-10--10--10--10--10--10---------10--10-10--10-10--10--------------|
E|------------------------------------------------------------------|
P.M.* * * * * * * * * * *   * * * *  * * *  * * *  * * * * *


Repeat the Verse, then:

Chorus 2:
e|-----------------------------------------------------------------------|
B|-----------------------------------------------------------------------|
G|-----------------10101010----------------------------12121212-10101010-|
D|--8888--12121212----------10101010---8888--12121212--------------------|
A|-----------------------------------------------------------------------|
E|-----------------------------------------------------------------------|
P.M.****   ****  ****     ****      ****    ****      ****    **** 


Bridge ("ho ho hooold on to me.."):
e|----------10--|
B|-------11-----|
G|----10--------|
D|--------------|
A|--------------|
E|--------------|
            
Hard to play? Try these video lessons and learn fast. | Correct




comments powered by Disqus
↑ Back to top | Tablatures and chords are parodies/interpretations of the original songs. You may use it for private study, scholarship, research or language learning purposes only