» » »

Tegan And Sara, I Won't Be Left Tabs (ver.1)

Artists:  A B C D E F G H I J K L M N O P Q R S T U V W X Y Z # 

I Won't Be Left Tabs (ver.1)

Tegan And Sara Tabs
Rating:
0/5 (0 votes)
I Won't Be Left lessons Tabs too difficult? Try these video lessons and learn fast
                Tegan and Sara
I Won’t Be Left
Tuned 1/2 Step Down

Verse
Guitar 1 (Electric)
eb|-------------------------------------------------------------------------|
Bb|-------------------------------------------------------------------------|
Gb|-------------------------------------------------------------------------|
Db|-7-7-7-7-7-7-7-7-11-11-11-11-11-11-11-11-9-9-9-9-9-9-9-9-9-9-9-9-9-9-9-9-|
Ab|-5-5-5-5-5-5-5-5--9--9—-9--9--9—-9--9--9-7-7-7-7-7-7-7-7-7-7-7-7-7-7-7-7-|
Eb|-------------------------------------------------------------------------|
p.m . . . . . . . .  .  .  .  .  .  .  .  . . . . . . . . . . . . . . . . .

Guitar 2 (Acoustic)
eb|-------------------------------------------------------------------------|
Bb|-------------------------------------------------------------------------|
Gb|-7-----7-7-------11-------11-11----------9-----9-9-----9-----9-9---------|
Db|-7-----7-7-------11-------11-11----------9-----9-9-----9-----9-9---------|
Ab|-5-----5-5--------9--------9--9—---------7-----7-7-----7-----7-7---------|
Eb|-------------------------------------------------------------------------|

Chorus
Guitar 1 (Electric)
eb|-----------------------------------------------------------------|
Bb|-----------------------------------------------------------------|
Gb|-----------------------------------------------------------------|
Db|-----------------------------------------------------------------|
Ab|-7-7-7-7-7-7-7-7-6-6-6-6-6-6-6-6-4-4-4-4-4-4-4-4-2-2-2-2-2-2-2-2-|
Eb|-5-5-5-5-5-5-5-5-4-4-4-4-4-4-4-4-2-2-2-2-2-2-2-2-0-0-0-0-0-0-0-0-|

Guitar 2 (Electric)
eb|-----------------------------------------------------------------|
Bb|-----------------------------------------------------------------|
Gb|-----------------------------------------------------------------|
Db|-----------------------------------------------------------------|
Ab|-7~~~--7-7~~~----6~~~--6-6~~~----4~~~--4-4~~~----2~~~--2-2~~~----|
Eb|-5~~~--5-5~~~----4~~~--4-4~~~----2~~~--2-2~~~----0~~~--0-0~~~----|
            

comments powered by Disqus
↑ Back to top | Tegan And Sara Tabs for I Won't Be Left. Lyrics for acoustic guitar and electric guitar. Tablatures and chords are parodies/interpretations of the original songs. You may use it for private study, scholarship, research or language learning purposes only