>
 >
Hello

Hello Guitar Tabs

Tegan And Sara - Hello chords, tabs, tablatures, lyrics

Guitar lessons | Add/correct | Request | Top 50 tabs Artists:  A B C D E F G H I J K L M N O P Q R S T U V W X Y Z 0-9

Hello Guitar Tabs – Tegan And Sara

CD, Sheet music, Poster

Do you like Hello? Share with your friends now
ChordsTabsUkulele
Tuning: Standard, Capo 2nd





(Fingerpick)
e-----------------------------------------------I
b---------1----------------------1--------------I
g------2-----(4X)------------2-----(4X)---------I
d---3--------------0--2----2--------------0--3--I
a-----------------------------------------------I
E-----------------------------------------------I

e-------------------------------------------------I
b-------------------------------------------------I
g---------0-------------0-----------2--------2----I
d------2-------------0------------2--------2------I
a---3--------3--~2~--------0--0--------0-------0--I
E-------------------------------------------------I

e-----------------------------------------------I
b---------1----------------------1--------------I
g------2-----(4X)------------2-----(4X)---------I
d---3--------------0--2----2--------------0--3--I
a-----------------------------------------------I
E-----------------------------------------------I
Right now I feel so empty
And someday won't be away

e-------------------------------------------------I
b-------------------------------------------------I
g---------0-------------0-----------2--------2----I
d------2-------------0------------2--------2------I
a---3--------3--~2~--------0--0--------0-------0--I
E-------------------------------------------------I
Until I've done all that I can
All that
Until I've done all that I can

e-----------------------------------------------I
b---------1----------------------1--------------I
g------2-----(4X)------------2-----(4X)---------I
d---3--------------0--2----2--------------0--3--I
a-----------------------------------------------I
E-----------------------------------------------I
One day it'll get easier
Cuz right now I feel so simple

e-------------------------------------------------I
b-------------------------------------------------I
g---------0-------------0-----------2--------2----I
d------2-------------0------------2--------2------I
a---3--------3--~2~--------0--0--------0-------0--I
E-------------------------------------------------I
Until I've done all that I can
All that
Until I've done all that I can

e--------------------------------I
b---------1----------------------I
g------2-----(5X)----------(4X)--I
d---3-------------------0--------I
a--------------------2-----------I
E-----------------3--------------I
And so I said hello hello hello 
I'm right here
Oh hello hello hello
I'm right here
I'm right here waiting for

e----------------------------------------------I
b----------------------------------------------I
g---------2------------------------------------I
d------2--------------5-----------3--------3---I
a---0--------0-----5-----------3--------3------I
E---------------3--------0--1--------1---------I
Drinking to yesterdays news
I'm sorry I was late I was so blue
Oh my hands hurt from holding your hands
And I'm young but it's hard to believe yeah-e-ah

(Strum)
e------------------I
b------------------I
g---5--------------I
d---5-----5-----7--I
a---3-----5-----7--I
E---------3-----5--I
That someday I will never see you again
And you might not believe this
But you've changed me so much
	
e------------------------I
b------------------------I
g---5--------------------I
d---5-----5-----7-----5--I
a---3-----5-----7-----5--I
E---------3-----5-----3--I
But baby (baby) it's so hard leaving you
And maybe (maybe) this was the only, the only way
Yeah-ah-aha

(Fingerpick)
e-----------------------------------------------I
b---------1----------------------1--------------I
g------2-----(4X)------------2-----(4X)---------I
d---3--------------0--2----2--------------0--3--I
a-----------------------------------------------I
E-----------------------------------------------I
But right now I wish I was older
And right now
You look so simple

e-------------------------------------------------I
b-------------------------------------------------I
g---------0-------------0-----------2--------2----I
d------2-------------0------------2--------2------I
a---3--------3--~2~--------0--0--------0-------0--I
E-------------------------------------------------I
Now is not my time
No no
Now is not the time

e--------------------------------I
b---------1----------------------I
g------2-----(5X)----------(4X)--I
d---3-------------------0--------I
a--------------------2-----------I
E-----------------3--------------I
And so I said hello hello hello 
I'm right here
Oh hello hello hello
I'm right here
I'm right here waiting for

e----------------------------------------------I
b----------------------------------------------I
g---------2------------------------------------I
d------2--------------5-----------3--------3---I
a---0--------0-----5-----------3--------3------I
E---------------3--------0--1--------1---------I
Drinking to yesterdays news
I'm sorry I was late I was so blue
Oh my hands hurt from holding your hands
And I'm young but it's hard to believe yeah-e-ah

(Strum)
e------------------I
b------------------I
g---5--------------I
d---5-----5-----7--I
a---3-----5-----7--I
E---------3-----5--I
That someday I will never see you again
And you might not believe this
But you've changed me so much
 
e------------------------I
b------------------------I
g---5--------------------I
d---5-----5-----7-----5--I    
a---3-----5-----7-----5--I
E---------3-----5-----3--I
But baby (baby) it's so hard leaving you
And maybe (maybe) this was the only, the only way
Yeah-ah-aha	x3

e--------------------------I
b--------------------------I
g---5----------------------I
d---5----5----7----7----7--I
a---3----5----7----7----7--I
E--------3----5----5----5--I
Cuz someday, I will never see you again





Comments


Popular Tegan And Sara tabs & chords
Con Chords
Frozen 1 Chords
Nineteen Chords
Two Stories 1 Chords
I Cant Take It 1 Tabs
It Was Midnight Tabs
Red Belt Tabs
I Hear Noises Ukulele
Red Belt Ukulele
Where Does The Good Go Ukulele


Song lyrics



↑ Back to top | Tablatures and chords are parodies/interpretations of the original songs. You may use it for private study, scholarship, research or language learning purposes only
© 2014 AZChords.com Contact us | Privacy policy | DMCA | Add/correct tabs | Request tabs | Top 50 tabs