>
 >
Hell

Hell Guitar Tabs

Tegan And Sara - Hell chords, tabs, tablatures, lyrics

Guitar lessons | Add/correct | Request | Top 50 tabs Artists:  A B C D E F G H I J K L M N O P Q R S T U V W X Y Z 0-9

Hell Guitar Tabs – Tegan And Sara

CD, Sheet music, Poster

Do you like Hell? Share with your friends now
Bass TabsBass Tabs v2ChordsChords v2TabsTabs v2Tabs v3Tabs v4Ukulele

Video of me covering this song:

Tuning:Standard w/Capo on 1st

(Intro) x4
e|----------------------------------------------------------|
B|----------------------------------------------------------|
G|------------------------------5-5-----------7-7-7---------|
D|1-1-x-1-1-1-x-1-1-1-x-1-1-1-x-5-5-x-5-5-5-x-7-7-7-0-7-0-7-|
A|1-1-x-1-1-1-x-1-1-1-x-1-1-1-x-3-3-x-5-5-5-x-5-5-5-0-7-0-7-|
E|------------------------------------3-3-3---------0-5-0-5-|

(Verse) x2 Bass Line:
e|----------------------------------------------------------------------------|
B|----------------------------------------------------------------------------|
G|----------------------------------------------------------------------------|
D|----------------------------------------------------------------------------|
A|1-1-x-1-1-1-x-1-1-1-x-1-1-1-x-3-3-x-----x-5-5-5-----------------------------|
E|-----------------------------------3-3-3--------0-5-0-5---------------------|

(Guitar comes back in) x2
e|----------------------------------------------------------|
B|----------------------------------------------------------|
G|------------------------------5-5-----------7-7-7---------|
D|1-1-x-1-1-1-x-1-1-1-x-1-1-1-x-5-5-x-5-5-5-x-7-7-7-0-7-0-7-|
A|1-1-x-1-1-1-x-1-1-1-x-1-1-1-x-3-3-x-5-5-5-x-5-5-5-0-7-0-7-|
E|------------------------------------3-3-3---------0-5-0-5-|

(Chorus)x2
e|------------------------------------------------------------|
B|------------------------------------------------------------|
G|--------------5-5-5-----------------------------------------|
D|3-3-3-3-3-3-3-5-5-5-5-5-5-5/7-7-7-7-7-7-7-7-7-7-7-7-7-7-7-7-|
A|3-3-3-3-3-3-3-3-3-3-5-5-5-5/7-7-7-7-7-7-7-7-7-7-7-7-7-7-7-7-|
E|1-1-1-1-1-1-1-------3-3-3-3/5-5-5-5-5-5-5-5-5-5-5-5-5-5-5-5-|

e|--------------------------------------------------------------|
B|--------------------------------------------------------------|
G|--------------5-5-5-------------------------------------------|
D|3-3-3-3-3-3-3-5-5-5-5-5-5-5/7-7-x-7-x-x-7-x-7-x-7-x-7-x-x-7-x-|
A|3-3-3-3-3-3-3-3-3-3-5-5-5-5/7-7-x-7-x-x-7-x-7-x-7-x-7-x-x-7-x-|
E|1-1-1-1-1-1-1-------3-3-3-3/5-5-x-5-x-x-5-x-5-x-5-x-5-x-x-5-x-|

(Repeat Intro, Verse 1 and than Chorus)

(Solo)
e|---------------------------------------------------------------------|
B|---------------------------------------------------------------------|
G|5-5-5-5-5-5-5/7-7-7-7-7-7-7---------------------------4-4-4-4-4-4-4\-|
D|5-5-5-5-5-5-5/7-7-7-7-7-7-7-7-7-7-7-7-7-7/8-8-8-8-8-8-4-4-4-4-4-4-4\-|
A|3-3-3-3-3-3-3/5-5-5-5-5-5-5-7-7-7-7-7-7-7/8-8-8-8-8-8-2-2-2-2-2-2-2\-|
E|----------------------------5-5-5-5-5-5-5/6-6-6-6-6-6----------------|

e|----------------------------------------|
B|----------------------------------------|
G|3-3-3-3-3-3-3/7-7-7-7-7-7-7/8-8-8-8-8-8-|
D|3-3-3-3-3-3-3/7-7-7-7-7-7-7/8-8-8-8-8-8-|
A|1-1-1-1-1-1-1/5-5-5-5-5-5-5/6-6-6-6-6-6-|
E|----------------------------------------|

(Bridge)
e|----------------------------------------------------------------------------|
B|----------------------------------------------------------------------------|
G|-------------5-5-----------7-7-7--------------------------------------------|
D|-------------5-5-x-5-5-5-x-7-7-7-0-7-0-7------------------------------------|
A|3-3-3-3-3-3\-3-3-x-5-5-5-x-5-5-5-0-7-0-7------------------------------------|
E|-------------------3-3-3---------0-5-0-5------------------------------------|

e|----------------------------------------------------------|
B|----------------------------------------------------------|
G|------------------------------5-5-----------7-7-7---------|
D|1-1-x-1-1-1-x-1-1-1-x-1-1-1-x-5-5-x-5-5-5-x-7-7-7-0-7-0-7-|
A|1-1-x-1-1-1-x-1-1-1-x-1-1-1-x-3-3-x-5-5-5-x-5-5-5-0-7-0-7-|
E|------------------------------------3-3-3---------0-5-0-5-|

(Repeat chorus) x4

| /  slide up
| \  slide down
| h  hammer-on
| p  pull-off
| ~  vibrato
| +  harmonic
| x  Mute note





Comments


Popular Tegan And Sara tabs & chords
Monday Monday Monday Chords
Nineteen Chords
Relief Next To Me 1 Chords
All You Got Tabs
City Girl Tabs
Here I Am Tabs
Nineteen Tabs
On Directing Tabs
Star Money Tabs
Has Passed Ukulele


Song lyrics



↑ Back to top | Tablatures and chords are parodies/interpretations of the original songs. You may use it for private study, scholarship, research or language learning purposes only
© 2014 AZChords.com Contact us | Privacy policy | DMCA | Add/correct tabs | Request tabs | Top 50 tabs