» » »

Heavy Tabs (ver.1)

Artists:  A B C D E F G H I J K L M N O P Q R S T U V W X Y Z # 

Heavy Tabs (ver.1)

Tegan And Sara
Rating:
0/5 (0 votes)

Hard to play? Try these video lessons and learn fast.
                Tegan & Sara
HEAVY



INTRO

e|------2---2---2---2--|-----------------|------0---0---0---0--|
b|------3---3---3---3--|----------3---2--|------2---2---2---2--|
g|------4---4---4---4--|------4----------|------2---2---2---2--|
d|------4---4---4---4--|--4--------------|--0---2---2---2---2--|
a|--0---2---2---2---2--|-----------------|------0---0---0---0--|
E|------2---2---2---2--|-----------------|---------------------|


e|-----------------|------2---2---2---2--|------0---3---2--|
b|------3---2------|------3---3---3---3--|-----------------|
g|--2-----------4--|------4---4---4---4--|--4--------------|
d|-----------------|------4---4---4---4--|-----------------|
a|-----------------|--0---2---2---2---2--|-----------------|
E|-----------------|------2---2---2---2--|-----------------|


e|------0---0---0---0--|------3---2---0--|------2---2---2---2--|
b|--0---2---2---2---2--|--2--------------|--0---3---3---3---3--|
g|------2---2---2---2--|-----------------|------4---4---4---4--|
d|------2---2---2---2--|-----------------|------4---4---4---4--|
a|------0---0---0---0--|-----------------|------2---2---2---2--|
E|---------------------|-----------------|------2---2---2---2--|


e|--------3--2--5--3--7--9--|--7--5--3--2-------------------------|
b|--0--5--------------------|--------------3--2-------------------|
g|--------------------------|--------------------4--3-------------|
d|--------------------------|--------------------------5--4--4/7--|
a|--------------------------|-------------------------------------|
E|--------------------------|-------------------------------------|

VERSE

e|--2---X---X---X---X--|--2---X---X---X---X--|
b|--3---X---X---X---X--|--3---X---X---X---X--|
g|--4---X---X---X---X--|--4---X---X---X---X--|
d|--4---X---X---X---X--|--4---X---X---X---X--|   x3
a|--2---X---X---X---X--|--2---X---X---X---X--|
E|--2---X---X---X---X--|--2---X---X---X---X--|

e|--0---X---X---X---X--|--0---X---X---X---X--|
b|--2---X---X---X---X--|--2---X---X---X---X--|
g|--2---X---X---X---X--|--2---X---X---X---X--|
d|--2---X---X---X---X--|--2---X---X---X---X--|   x3
a|--0---X---X---X---X--|--0---X---X---X---X--|
E|---------------------|---------------------|

e|-------------------------| 
b|--3-p-2---2-p-0----------|
g|------------------4-p-0--|
d|-------------------------|
a|-------------------------|
E|-------------------------|


It´s to easy to play.
Have Fun!!!

AdEs
            
Hard to play? Try these video lessons and learn fast. | Correct




comments powered by Disqus
↑ Back to top | Tablatures and chords are parodies/interpretations of the original songs. You may use it for private study, scholarship, research or language learning purposes only