» » »

Floorplan Tabs (ver.1)

Artists:  A B C D E F G H I J K L M N O P Q R S T U V W X Y Z # 

Floorplan Tabs (ver.1)

Tegan And Sara
Rating:
0/5 (0 votes)

Hard to play? Try these video lessons and learn fast.
                
Tuning: Standard

INTRO
e|-------------------------------|
B|---0-------3-------3-------3---|
G|-----1-------0-------2-------0-| 
D|-------2-------0-0-----0-------| x1
A|-2-------3---------------3-----|
E|-------------------------------|

e|---------------------------------|
B|-----0-------3-------3-------3---|
G|-0h1---1-------0-------2-------0-|
D|---------2-------0-0-----0-------| x3
A|-2---------3---------------3-----|
E|---------------------------------|

VERSE
e|---------------------------------|
B|-----0-------3-------3-------3---|
G|-0h1---1-------0-------2-------0-|
D|---------2-------0-0-----0-------|
A|-2---------3---------------3-----|
E|---------------------------------|

e|---------------------------------|
B|---------------------------------|
G|---0---0---0---0---0---0---0---0-|
D|---------------------------------|
A|-2---2---2---2---2---2---2---2---|
E|---------------------------------|

e|-------------------------------|
B|---0-------3-------3-------3---|
G|-----1-------0-------2-------0-| 
D|-------2-------0-0-----0-------|
A|-2-------3---------------3-----|
E|-------------------------------|

e|---------------------------------|
B|-----0-------3-------3-------3---|
G|-0h1---1-------0-------2-------0-|
D|---------2-------0-0-----0-------|
A|-2---------3---------------3-----|
E|---------------------------------|

e|---------------------------------|
B|---------------------------------|
G|---0---0---0---0---0---0---0---0-|
D|---------------------------------|
A|-2---2---2---2---2---2---2---2---|
E|---------------------------------|

e|---------------------------------|
B|---------------------------------|
G|---0---0---0---0---0---0---0---0-|
D|---------------------------------|
A|-2---2---2---2---2---2---2---2---|
E|---------------------------------|

PRE-CHORUS
e|---------------------------------------|
B|----10---------10--------3-------3-----|
G|-------9----------9--------2-------2---|
D|-10------10------------3-----3---------| x4
A|------------10------10---------3-----3-|
E|---------------------------------------|

CHORUS
e|---------------------------------------|
B|----10---------10--------3-------3-----|
G|-------9----------9--------2-------2---|
D|-10------10------------3-----3---------| x4
A|------------10------10---------3-----3-|
E|---------------------------------------|

POST-CHORUS
e|---------------------------------|
B|---------------------------------|
G|---0---0---0---0---0---0---0---0-| x2
D|---------------------------------|
A|-2---2---2---2---2---2---2---2---|
E|---------------------------------|

BRIDGE
e|---------------------------------------|
B|----10---------10--------3-------3-----|
G|-------9----------9--------2-------2---|
D|-10------10------------3-----3---------| x6
A|------------10------10---------3-----3-|
E|---------------------------------------|

--------------
ORDER OF PARTS
--------------

-intro
-verse
-pre-chorus
-chorus
-post-chorus
-verse
-pre-chorus
-chorus
-bridge
-chorus
-bridge x2
            
Hard to play? Try these video lessons and learn fast. | Correct




comments powered by Disqus
↑ Back to top | Tablatures and chords are parodies/interpretations of the original songs. You may use it for private study, scholarship, research or language learning purposes only