» » »

Empty In Between Tabs (ver.1)

Artists:  A B C D E F G H I J K L M N O P Q R S T U V W X Y Z # 

Empty In Between Tabs (ver.1)

Tegan And Sara
Rating:
5/5 (2 votes)

Hard to play? Try these video lessons and learn fast.
                Empty In Between Tab by Tegan and Sara
Capo on 6th fret
Standard tuning

Finger pick
E--------------------------------------------------------------------| 
B-----------1-----------------------------0--------------------------| 
G-------------0-------------0----------------0-------------0---------| 
D------2-------------------------------------------------------0-----|   x2
A---3----------------------------------------------------------------| 
e---------------------1---------0---3-----------0---1—---------------|

E--------------------------------------------------------------------| 
B-----------1-----------------------------0--------------------------| 
G-------------0-------------0----------------0-------------0---------| 
D------2-------------------------------------------------------0-----|   
A---3----------------------------------------------------------------| 
e---------------------1---------0---3-----------0---1—---------------|
You wear that superstar status on your shoulder 
Don't worry I won't lean on you when I get cold yeah
Sell a million copies and I'll buy back your love
Tell everyone I hate you and I'll blame the above
Love, you're breakin' me
Oh love, you're shakin' me
I'm left empty in between

E--------------------------------------------------------------------| 
B-----------1-----------------------------0--------------------------| 
G-------------0-------------0----------------0-------------0---------| 
D------2-------------------------------------------------------0-----|   
A---3----------------------------------------------------------------| 
e---------------------1---------0---3-----------0---1—---------------|

E--------------------------------------------------------------------| 
B-----------1-----------------------------0--------------------------| 
G-------------0-------------0----------------0-------------0---------| 
D------2-------------------------------------------------------0-----|   
A---3----------------------------------------------------------------| 
e---------------------1---------0---3-----------0---1—---------------|
You wear that chip like it makes up your wardorbe
Don't worry I won't tell anyone you're so bad
Sell a million copies and I'll buy back your love
Tell everyone I hate you and I'll blame the above


Strum (listen to song for strumming pattern)
E--0-------3--I 
B--1-------0--I 
G--0-------0--I 
D--2---3---0--I 
A--3---3---2--I 
E------1---3--I
Love, you're breakin' me
Oh love, you're shakin' me
Oh, from the car to the front door
I'm left empty in between
Oh love, you're breakin' me
Oh love, you're shakin' me
Oh, from the car to the front door
I'm left empty in between

More Tegan and Sara tabs at:
            
Hard to play? Try these video lessons and learn fast. | Correct




comments powered by Disqus
↑ Back to top | Tablatures and chords are parodies/interpretations of the original songs. You may use it for private study, scholarship, research or language learning purposes only