» » »

Tegan And Sara, Call It Off Tabs (ver.2)

Artists:  A B C D E F G H I J K L M N O P Q R S T U V W X Y Z # 

Call It Off Tabs (ver.2)

Tegan And Sara Tabs
 Rating:
4.6/5 (11 votes)
Call It Off lessons Tabs too difficult? Try these video lessons and learn fast
                Call It Off

Capo 3

The basic formation of the chords:

   C   Am    G   Em7   F
e--------------------------|
B--1----1----0----3----1---|
G--0----2----0----0----2---|
D--------------------------|
A--3----0---------2--------|
E------------3---------1---|


VERSE

e----------------------|-----------------------|
B----1----1----1-------|-----1----1----1-------|
G----0----0----0----0--|-----2----2----2----0--|
D----------------------|-----------------------|  x4
A--3----3----3----3----|---0----0----0----0----|
E----------------------|-----------------------|

I won\'t regret saying this
This thing that I\'m saying
Is it better than keeping my mouth shut
That goes without saying

CHORUS

e--------------------|-----------------|-----------------|------------------|
B-----0---0----0---0-|---1---1---1---1-|---3---3---3---3-|---1---1---1---1--|
G-----0---0----0---0-|---0---0---0---0-|---0---0---0---0-|---2---2---2---2--|
D--------------------|-----------------|-----------------|------------------| x2
A--------------------|-3---3---3---3---|-2---2---2---2---|-0---0---0---0----|
E---3---3----3---3---|-----------------|-----------------|------------------|

Call, break it off
Call, break my own heart

e-----------------|-----------------|-----------------|------------------|
B---1---1---1---1-|---1---1---1---1-|---0---0---0---0-|---0---0---0---0--|
G---2---2---2---2-|---0---0---0---0-|---0---0---0---0-|---0---0---0---0--|
D-----------------|-----------------|-----------------|------------------| x2
A-----------------|-3---3---3---3---|-----------------|------------------|
E--1---1---1---1--|-----------------|-3---3---3---3---|-3---3---3---3----|

Maybe I would have been something you\'d be good at
Maybe you would have been something I\'d be good at

e------------------|-----------------|-----------------|------------------|
B----1---1---1---1-|---0---0---0---0-|---1---1---1---1-|---1---1---1---1--|
G----2---2---2---2-|---0---0---0---0-|---0---0---0---0-|---2---2---2---2--|
D------------------|-----------------|-----------------|------------------| x3
A------------------|-----------------|-3---3---3---3---|-0---0---0---0----|
E--1---1---1---1---|-3---3---3---3---|-----------------|------------------|

But now we\'ll never know
I won\'t be sad
But in case I go there
Everyday, to make myself feel bad
There\'s a chance that I\'ll start to wonder if this was the thing to do


(When you get to \"thing to do\", don\'t move to the fourth position, stay on the third, 
is the same position as the

beginning of the next verse. Really easy.)

The rest of the song is the same except for the last two lines (See below.)

I won\'t be out long
But I still think it better if
You take your time coming over here
I think that\'s for the best
Call, break it off
Call, break my own heart
Maybe I would have been something you\'d be good at
Maybe you would have been something I\'d be good at
But now we\'ll never know
I won\'t be sad
But in case I go there
Everyday, to make myself feel bad
there\'s a chance I\'ll

e-------------------------------------|-----------------|------------------|
B-----1---1---1---1-|---0---0---0---0-|---1---1---1---1-|---1---1---1---1--|
G-----2---2---2---2-|---0---0---0---0-|---2---2---2---2-|---2---2---2---2--|
D-------------------|-----------------|-----------------|------------------|
A-------------------|-----------------|-0---0---0---0---|-0---0---0---0----|
E---1---1---1---1---|-3---3---3---3---|-----------------|------------------|

...start to wonder if this was the thing to do


e------------------|------------------------|
B----1---1---1---1-|---0---0---0---0---1----|
G----2---2---2---2-|---0---0---0---0---0----| (Strum a C to end it.)
D------------------|-------------------2----|
A------------------|-------------------3----|
E--1---1---1---1---|-3---3---3---3----------|

I\'ll start to wonder if this was the thing to do.
            
Submit corrections

comments powered by Disqus
↑ Back to top | Tegan And Sara Tabs for Call It Off. Lyrics for acoustic guitar and electric guitar. Tablatures and chords are parodies/interpretations of the original songs. You may use it for private study, scholarship, research or language learning purposes only