>
 >
Prinsesa 1

Prinsesa 1 Guitar Tabs

Teeth - Prinsesa 1 chords, tabs, tablatures, lyrics

Guitar lessons | Add/correct | Request | Top 50 tabs Artists:  A B C D E F G H I J K L M N O P Q R S T U V W X Y Z 0-9

Prinsesa 1 Guitar Tabs – Teeth

CD, Sheet music, Poster

Do you like Prinsesa 1? Share with your friends now
Bass TabsBass Tabs v2Bass Tabs v3ChordsTabsTabs v2Tabs v3Tabs v4Tabs v5Tabs v6Ukulele
-------------------------------------------------------------------------------
			     PRINSESA - THE TEETH
-------------------------------------------------------------------------------

Tuning: standard (EDAGBe)

Guitar 1:
Use these in intro, verse, and adlib.
e|-------------|------------|-------------|-------------|
B|-------------|------------|-------------|-------------|
G|-7-7--7-7-7--|-7-7--7-7-7-|-5-5--5-5-5--|-4-4--4-4-4--|
D|-7-7--7-7-7--|-7-7--7-7-7-|-5-5--5-5-5--|-5-5--5-5-5--|
A|-5-5--5-5-5--|-4-4--4-4-4-|-3-3--3-3-3--|-5-5--5-5-5--|
E|-x-x--x-x-x--|-x-x--x-x-x-|-x-x--x-x-x--|-3-3--3-3-3--|
\__________________ __________________________/
	   \/
	 you repeat this 4x at intro
	 this is also used in the verses

guitar 2:

I'm 90% sure of this, this is used in the 3rd and 4th time in intro.

e|-----------------11-------------11-------------11-------------11~----------|
B|-/12-12-12-12-14----12-12-12-14----12-12-12-14----12-12-12-14--------------|
G|---------------------------------------------------------------------------|
D|---------------------------------------------------------------------------|
A|---------------------------------------------------------------------------|
E|---------------------------------------------------------------------------|
      
e|--------------11-------------11-------------11-------------11~-------------|
B|--12-12-12-14----12-12-12-14----12-12-12-14----12-12-12-14-----------------|
G|---------------------------------------------------------------------------|
D|---------------------------------------------------------------------------|
A|---------------------------------------------------------------------------|
E|---------------------------------------------------------------------------|

Chorus: 
  Dalhin mo ko, sa iyong palasyo.....
e|-----------|-----------|-----------------------------------------------------|
B|-----------|-----------|-----------------------------------------------------|
G|-----6-----|----7------|-----------------------------------------------------|
D|-----7-----|----7------|-----------------------------------------------------|
A|-----7-----|----5------|-----------------------------------------------------|
E|-----5-----|----x------|-----------------------------------------------------|
\_____________  ____/
              \/
           play this tab continuously and repeatedly 
		from: "dalhin mo ako" up to "habang buhay kitang pagsisilbihan" 
	
	



  O aking prinsesa |  ha-a-ah    
e|-----------------|------------|
B|-----------------|------------|
G|----4------------|----x-------|
D|----5------------|----5-------|
A|----5------------|----5-------|
E|----3------------|----3-------|
 \__________  ____________/		      
            \/   
continuous strumming, you must hear the song para malaman mo kung
paano ang correct strumming. Pagkatapos nito, intro ulit...  
		      
	     
	
SUMMARY: for guitar

Intro
1st Verse
Interlude (1x of the intro (w/o the lead)
2nd verse
Chorus
Intro (adlib)
3rd verse
Chorus
Adlib
Chorus
Coda

LYRICS								
1st verse:
Nakaupo s'ya sa isang madilim na sulok               
Ewan ko ba kung bakit sa libu-libong babaing nandoon        
Wala pang isang minuto                               
Nahulog na ang loob ko sa 'yo.                        
(interlude)                                                     
2nd verse:
Gusto ko sanang marinig ang tinig mo                 
Umasa na rin na sana'y mahawakan ko ang palad mo     
Gusto ko sanang lumapit                              
Kung di lang sa lalaking kayakap mo, ho o-o-oh.      
                                                     
Chorus:                                            
Dalhin mo ako sa iyong palasyo                                                       
Maglakad tayo sa hardin ng yong kaharian             
Wala man akong pag-aari                                                                               
Pangako kong habangbuhay kitang pagsisilbihan          
O aking prinsesa ha-a-ah, prinsesa                   
Prinsesa, prinsesa.                                        
                                                      
Ad lib 

3rd verse:
Di ako makatulog                                       
Naisip ko ang ningning ng yong mata                  
Nasa isip kita buong umaga buong magdamag            
Sana'y parati kang tanaw                             
O ang sakit isipin ito'y isang panaginip             
Panaginip lang.                                       
                                                     
Repeat Chorus                                        
                                                     
Ad lib: 
                                                     
Repeat Chorus                                        
                                                     
CODA:
Prinsesa, prinsesa    Prinsesa, a-ha-ah... (Fade)               
           


Tnx. Hanggang d2 n lang. sna nmn maintindihan nyo 2ng gwa k, 1st tym k lang gmwa ng tabs....





Comments


Popular Teeth tabs & chords
Laklak Bass Tabs
Bum Squad Chords
Tampo Chords
Gubat Tabs
Me Tabs
Prinsesa 2 Tabs
Prinsesa 3 Tabs
Prinsesa 4 Tabs
Tugtugan Na Tabs
Shooting Stars Ukulele


Song lyrics



↑ Back to top | Tablatures and chords are parodies/interpretations of the original songs. You may use it for private study, scholarship, research or language learning purposes only
© 2014 AZChords.com Contact us | Privacy policy | DMCA | Add/correct tabs | Request tabs | Top 50 tabs