» » »

Bite Me Tabs (ver.1)

Artists:  A B C D E F G H I J K L M N O P Q R S T U V W X Y Z # 

Bite Me Tabs (ver.1)

Teer
Rating:
0/5 (0 votes)

Hard to play? Try these video lessons and learn fast.
                teer/bite me

        intro
E|-------------------------|
B|-------------------------|
G|-------------------------|
D|-10p9\7-6-6-6h7-9b10-7~~-|repeat 2 times
A|-------------------------|
E|-------------------------|

E|---------------------------------------------|
B|-15/17-17-15----15h17-15-13-15-15b17r15b17~~-|
G|-------------17------------------------------|
D|---------------------------------------------|
A|---------------------------------------------|
E|---------------------------------------------|

E|---------------------------------------|
B|---------------------------------------|
G|-------------------14-16-16-17p16-14~~-|
D|-12p10h12p10-12-14---------------------|
A|---------------------------------------|
E|---------------------------------------|

E|-------12-------12-15p12------------------------------------------|
B|-15b17----15b17----------15h17-15b16-15-13-15p13-15p13-15p13------|
G|-------------------------------------------------------------14~~-|
D|------------------------------------------------------------------|
A|------------------------------------------------------------------|
E|------------------------------------------------------------------|

E|---------------------------------------------------------------------|
B|--------------------------------------------15b17~~-12\13-13---------|
G|-13h14~~-13-14-16-16b17r16-14-16-17-14-14~~------------------14-14~~-|
D|---------------------------------------------------------------------|
A|---------------------------------------------------------------------|
E|---------------------------------------------------------------------|

                          ending
E|----------------------------------------------------|
B|-------------12-13-12---15p13-13p12h13--------------|
G|-------12-14---------------------------14~~-13/14~~-|
D|-12/14----------------------------------------------|
A|----------------------------------------------------|
E|----------------------------------------------------|

E|-----------|
B|-----------|
G|-7/9-7~~h9-|
D|-----------|
A|-----------|
E|-----------|
            
Hard to play? Try these video lessons and learn fast. | Correct




comments powered by Disqus
↑ Back to top | Tablatures and chords are parodies/interpretations of the original songs. You may use it for private study, scholarship, research or language learning purposes only