» » »

Teen Idols, West End Road Bass tabs (ver.1)

Artists:  A B C D E F G H I J K L M N O P Q R S T U V W X Y Z # 

West End Road Bass tabs (ver.1)

Teen Idols Tabs
 Rating:
4/5 (4 votes)
West End Road lessons Tabs too difficult? Try these video lessons and learn fast
1
                WEST END ROAD By Teen Idols Album : Full Leather Jacket
:
# intro #  *=play x4  #=play x3
G--------------------------------------------------------------------------|
D----*---*---*----------------*---*---*---*---*----------------#--*--#--*--|
A---5---5---1---1-0---*---*--0---0---5---5---1---1-0---*---*--0--0--0--0---|
E--------------------3---3----------------------------3---3----------------|
:
# verse # x2   *=play x5
G-------------*---*---------------------|
D----*---*---4---4----*---*--------*----|
A---5---5------------2---0----*---0-----|
E----------------------------3----------|
:
# pre-chorus #   *=play x11  #=play 12
G---------------------------------------|
D--------*--------------------#---------|
A-------2--------*-------#---3----------|
E-----------3---2---3---5---------------|
:
# chorus #   *=play x4
G--------------x3-----------------|---------------------------------------|
D----*--*--*---------------*---*--|----*--*--*---------------#--*--#--*---|
A---5--5--1--1-0---*---*--0---0---|---5--5--1--1-0---*---*--0--0--0--0----|
E-----------------3---3-----------|-----------------3---3-----------------|
:
Then Play verse x2, pre-chorus, chorus
:
# end chorus #   *=play x4
G--------------x3-----------------|---------------------------------|
D----*--*--*---------------*---*--|----*--*--*---------------*------|
A---5--5--1--1-0---*---*--0---0---|---5--5--1--1-0---*---*--0---5---|
E-----------------3---3-----------|-----------------3---3-----------|
:
            
Submit corrections

comments powered by Disqus
↑ Back to top | Teen Idols Bass for West End Road. Lyrics for acoustic guitar and electric guitar. 1 Tablatures and chords are parodies/interpretations of the original songs. You may use it for private study, scholarship, research or language learning purposes only