» » »

Turning The Tide Tabs

Artists:  A B C D E F G H I J K L M N O P Q R S T U V W X Y Z # 

Turning The Tide Tabs

(ver. 1)
Teen Idols Tabs
 Rating:
4/5 (4 votes)
    Turning The Tide lessons Tabs too difficult? Try these video lessons and learn fast
                intro/ verse 

e|-----------------------------------------------------------------------------|
B|-----------------------------------------------------------------------------|
G|-----------------------------------------------------------------------------|
D|---9--7--2-------------------------------------------------------------------|
A|---9--7--2-------------------------------------------------------------------|
E|---7--5--0-------------------------------------------------------------------|

the part that is in the middle of the first verse and pre chorus
e|-----------------------------------------------------------------------------|
B|-----------------------------------------------------------------------------|
G|---6--7--9-------------------------------------------------------------------|
D|---6--7--9-------------------------------------------------------------------|
A|---4--5--7-------------------------------------------------------------------|
E|-----------------------------------------------------------------------------|

chorus

e|-----------------------------------------------------------------------------|
B|-----------------------------------------------------------------------------|
G|--7---------------7----------------------------------------------------------|
D|--7---5---9---5---7--5--9--5-----------------------7-------------------------|
A|--5---5---9---5---5--5--9--5--end chorus with this 7-------------------------|
E|------3---7---3------3--7--3-----------------------5-------------------------|
            
Submit corrections

↑ Back to top | Teen Idols Tabs for Turning The Tide. Lyrics for acoustic guitar and electric guitar. Tablatures and chords are parodies/interpretations of the original songs. You may use it for private study, scholarship, research or language learning purposes only