» » »

Rebel Souls Tabs (ver.1)

Artists:  A B C D E F G H I J K L M N O P Q R S T U V W X Y Z # 

Rebel Souls Tabs (ver.1)

Teen Idols
Rating:
0/5 (0 votes)

Hard to play? Try these video lessons and learn fast.
                
Intro Solo
e|-------------------------------------------------------------|
B|-------------------------------------------------------------|
G|-------9--7~--7/11~--9--11--9--------------------------------|
D|-5~/9--------------------------9~--10--10/12--10--9--7--5----|
A|-------------------------------------------------------------|
E|-------------------------------------------------------------|

e|-------------------------------------------------------------|
B|-------------------------------------------------------------|
G|-------9--7~--7/11~--9--11--9--------------------------------|
D|-5~/9--------------------------9~--10--10/12--10--12-9-9/12~-|
A|-------------------------------------------------------------|
E|-------------------------------------------------------------|

Intro/Verse:
   *=play 16x with palm-muting   #=play 8x with palm-muting
   ()=play 1st time   $=play 4x with palm-muting
e|--/---------2x--------\----------|
B|--------*----#--#------------$-$-| 
G|---*---7----5--7---*------#-5-7--|  > play 2x
D|--5----7----5--7-(5)-----5--5-7--|
A|--5----5----3--5-(5)-----5--3-5--|
E|--3--------------(3)-----3-------|

Chorus:
   *=play 16x with palm-muting   #=play 8x with palm-muting   
   $=play 4x with palm-muting
e|-/----4x-----\-------------------|
B|--------$-$----------------------|
G|---*---5-7--#--------------------|  >Then play Intro/Verse again and 
D|--5----5-7-5---------------------|  >repeat Chorus w/o muting
A|--5----3-5-5---------------------|   
E|--3--------3---------------------|
            
Hard to play? Try these video lessons and learn fast. | Correct




comments powered by Disqus
↑ Back to top | Tablatures and chords are parodies/interpretations of the original songs. You may use it for private study, scholarship, research or language learning purposes only