» » »

Nothing To Prove Bass tabs (ver.1)

Artists:  A B C D E F G H I J K L M N O P Q R S T U V W X Y Z # 

Nothing To Prove Bass tabs (ver.1)

Teen Idols
Rating:
0/5 (0 votes)

Hard to play? Try these video lessons and learn fast.
                NOTHING TO PROVE by Teen Idols. Album : Nothing To Prove
:
# chorus #   *=play x7
G------------------------------------------|
D----*----------------*--------------------|
A---2----*---*---*---2----*----------------|
E-------0---4---0--------0---444--222--0---|
:
# verse #    *=play x8  #=play x7
G--------(x2)--------|--------(x2)--------|----*---*---*---*---------->|
D----*---*-----------|----#---#-----------|---4---4---4---4---42-42--->|
A---2---2----*---*---|---2---2----#---#---|--------------------------->|
E-----------4---0----|-----------4---0----|--------------------------->|
:
G----*---*------------|
D---4---4---4-2-1-----|
A-----------------4---|
E---------------------|
:
Then play chorus & verse
:
# outro #   *=play x7
G--------(x5)--------|------------------------|
D----*---------------|----*-------------------|
A---2----*---*---*---|---2----*---------------|
E-------0---4---0----|-------0---44--222--0---|
:
            
Hard to play? Try these video lessons and learn fast. | Correct




comments powered by Disqus
↑ Back to top | Tablatures and chords are parodies/interpretations of the original songs. You may use it for private study, scholarship, research or language learning purposes only