» » »

Teen Idols, Insanity Plea Tabs (ver.1)

Artists:  A B C D E F G H I J K L M N O P Q R S T U V W X Y Z # 

Insanity Plea Tabs (ver.1)

Teen Idols Tabs
Rating:
0/5 (0 votes)
Hard to play? Try these video lessons and learn fast.
                
Verse:
e|---------------------------------------------------------------------------|
B|---------------------------------------------------------------------------|
G|-------------------7-------------------------------------------------------|
D|---7-------5-------7-------7-----5--7--------------------------------------|
A|---7-------5-------5-------7-----5--7--------------------------------------|
E|---5-------3---------------5-----3--5--------------------------------------|

Chorus:
e|---------------------------------------------------------------------------|
B|---------------------------------------------------------------------------|
G|-----------7------------------------7--------------------------------------|
D|---7-------7-----------------5------7------7-------------------------------|
A|---7-------5-----------------5------5------7-------------------------------|
E|---5-------------------------3-------------5-------------------------------|
    -----------
        x3

timing is very easy and its great song
            

comments powered by Disqus
↑ Back to top | Teen Idols Tabs for Insanity Plea. Lyrics for acoustic guitar and electric guitar. Tablatures and chords are parodies/interpretations of the original songs. You may use it for private study, scholarship, research or language learning purposes only