» » »

Historian Bass tabs (ver.1)

Artists:  A B C D E F G H I J K L M N O P Q R S T U V W X Y Z # 

Historian Bass tabs (ver.1)

Teen Idols
Rating:
0/5 (0 votes)

Hard to play? Try these video lessons and learn fast.
                HISTORIAN by Teen Idols Album : Pucker Up
:
# intro #   *=play x5  
G--------------------------------------|    
D--------------------------------------|
A----*---*---*---*---*---*---*---------|
E—--1---3---5---5---1---3---5---5555---|
:
# verse # x2   *=play x5   
G---------------------------------------------|
D---------------------------------------------|
A----*---*---*-----3------*---*---*-----3-----|
E—--5---5---5---55---5---3---3---3---33---3---|
:
# pre-chorus #   *=play x5   
G-------------*---*-----------------------|
D----*---*---2---2----------------*---*---|
A---5---5------------------------5---5----|
E—-------------------5555-3333------------|
:
# chorus #   *=play x5   
G--------x3----------|------------------------|
D--------------------|------------------------|
A----*---*---*---*---|----*---*---*-----------|
E—--1---3---5---5----|---1---3---5---5555-----|
:
Then Play Verse, Pre-Chorus, Chorus
:
# during solo #   *=play x5   
G--------------------------------------|
D--------------------------------------|
A----*---*---*---*------3------*---*---|
E—--5---5---5---5---111---3---5---5----|
:
Then Play Verse, Pre-Chorus, Chorus
:
            
Hard to play? Try these video lessons and learn fast. | Correct




comments powered by Disqus
↑ Back to top | Tablatures and chords are parodies/interpretations of the original songs. You may use it for private study, scholarship, research or language learning purposes only