» » »

Teen Idols, Her Only One Tabs (ver.1)

Artists:  A B C D E F G H I J K L M N O P Q R S T U V W X Y Z # 

Her Only One Tabs (ver.1)

Teen Idols Tabs
 Rating:
4/5 (4 votes)
Her Only One lessons Tabs too difficult? Try these video lessons and learn fast
                
Verse  "When it's lonely..."  
e|----------------------------|
B|----------------------------|
G|-(pm)---------7-------------|
D|--7------5----7----7--------|
A|--7------5----5----7--------|
E|--5------3---------5--------|

Chorus  "She scans the airwaves..."  
e|---------------|
B|---------------|
G|--9------7-----|
D|--9------7-----|
A|--7------5-----|
E|---------------|

Riff (for Interlude & Outro)  
e|----------------------------|
B|----------------------------|
G|--------------7-------------|
D|--7-----5-----7-----7-------|
A|--7-----5-----5-----7-------|
E|--5-----3-----------5-------|

Bridge  "And before the night is over..."  
e|----------------------------|
B|----------------------------|
G|--5-----------5-----7-------|
D|--5-----5-----5-----7-------|
A|--3-----5-----3-----5-------|
E|--------3-------------------|

Outro  "Her only one's the only one she'll ever know..."
  *play Riff
            
Submit corrections

comments powered by Disqus
↑ Back to top | Teen Idols Tabs for Her Only One. Lyrics for acoustic guitar and electric guitar. Tablatures and chords are parodies/interpretations of the original songs. You may use it for private study, scholarship, research or language learning purposes only