» » »

Teen Idols, Forever In My Dreams Tabs (ver.1)

Artists:  A B C D E F G H I J K L M N O P Q R S T U V W X Y Z # 

Forever In My Dreams Tabs (ver.1)

Teen Idols Tabs
 Rating:
4/5 (4 votes)
Forever In My Dreams lessons Tabs too difficult? Try these video lessons and learn fast
                
written out are the chords. listen to the song to get the patterns. 

Intro/ verse 
e|---------------------------------------------------------------------------| 
B|---------------------------------------------------------------------------| 
G|--------4-----7----6-------------------------------------------------------| 
D|----4---4-----7----6-------------------------------------------------------| 
A|----4---2-----5----4-------------------------------------------------------| 
E|----2----------------------------------------------------------------------| 

thing before the chorus 
e|---------------------------------------------------------------------------| 
B|---------------------------------------------------------------------------| 
G|----2----4------------2----4----6------------------------------------------| 
D|----2----4----4-------2----4----6------------------------------------------| 
A|----0----2----4-------0----2----4------------------------------------------| 
E|--------------2------------------------------------------------------------|

chorus 
e|---------------------------------------------------------------------------| 
B|---------------------------------------------------------------------------| 
G|---------7---9-------------------------------------------------------------| 
D|---4-----7---9----7------6-------------------------------------------------| 
A|---4-----5---7----7------6-------------------------------------------------| 
E|---2--------------5------4-------------------------------------------------|
            
Submit corrections

comments powered by Disqus
↑ Back to top | Teen Idols Tabs for Forever In My Dreams. Lyrics for acoustic guitar and electric guitar. Tablatures and chords are parodies/interpretations of the original songs. You may use it for private study, scholarship, research or language learning purposes only