» » »

Teen Idols, Every Day Is Sunday Tabs (ver.1)

Artists:  A B C D E F G H I J K L M N O P Q R S T U V W X Y Z # 

Every Day Is Sunday Tabs (ver.1)

Teen Idols Tabs
Rating:
0/5 (0 votes)
Hard to play? Try these video lessons and learn fast.
                
Verse:  "I'm stuck behind these bars for 25 to life..."
e|-----------------|
B|-----------------|
G|-7-----------7---|
D|-7----5/7----7---|
A|-5----5/7----5---|
E|------3/5--------|

Pre-Chorus:  "You don't have to feel sorry for me..."
e|--------------------------------------------|
B|--------------------------------------------|
G|------7---------7---------7-----------------|
D|-7----7----5----7----7----7----3--------7---|
A|-7----5----5----5----7----5----3--------7---|
E|-5---------3---------5---------5--------5---|

Chorus:  "Every day's Saturday when you're doin' time..."
e|---------------|
B|---------------|
G|-7-------------|
D|-7----5----7---|
A|-5----5----7---|
E|------3----5---|

Outro:
e|---------------|
B|---------------|
G|-9-------------|
D|-9----7----9---|
A|-7----7----9---|
E|------5----7---|


Chorus x4
Verse x2
Pre-Chorus x1
Chorus x4
Verse x2
Pre- Chorus x1
Chorus x4
Outro
            

comments powered by Disqus
↑ Back to top | Teen Idols Tabs for Every Day Is Sunday. Lyrics for acoustic guitar and electric guitar. Tablatures and chords are parodies/interpretations of the original songs. You may use it for private study, scholarship, research or language learning purposes only