» » »

Teen Idols, Been So Far Tabs (ver.1)

Artists:  A B C D E F G H I J K L M N O P Q R S T U V W X Y Z # 

Been So Far Tabs (ver.1)

Teen Idols Tabs
Rating:
0/5 (0 votes)
Hard to play? Try these video lessons and learn fast.
                
Intro
e|------------------------------------------------------------|
B|------------------------------------------------------------|
G|--------------------7-----------------------7-----9---------|
D|-7-----4---2--------7-----2-----7--6--4-----7-----9-----7---|
A|-7-----4---2--}x2---5-----2-----7--6--4-----5-----7-----7---|
E|-5-----2---0--------------0-----5--4--2-----------------5---|

Verse  "Somewhere down on highway 51..."  x4
e|---------------|
B|---------------|
G|-------7-------|
D|-7-----7---2---|
A|-7-----5---2---|
E|-5---------0---|

Chorus  "But I've been so far away..."
  *same as Intro


Intro
Verse
Chorus
Verse
Chorus  x2
            

comments powered by Disqus
↑ Back to top | Teen Idols Tabs for Been So Far. Lyrics for acoustic guitar and electric guitar. Tablatures and chords are parodies/interpretations of the original songs. You may use it for private study, scholarship, research or language learning purposes only