» » »

Backstabber Bass tabs (ver.1)

Artists:  A B C D E F G H I J K L M N O P Q R S T U V W X Y Z # 

Backstabber Bass tabs (ver.1)

Teen Idols
Rating:
0/5 (0 votes)

Hard to play? Try these video lessons and learn fast.
                :
# intro #  *=play x6
G--------------------|
D--------------------|
A----*---*---*---*---|
E---7---7---7---7----|
:
# verse-1 # x2   *=play x6
G--------------------------------------------------------------------------|
D--------------------------------------------------------------------------|
A----*---*---*---*---*---*---*---*---*---*---*---*---*---*---*---*---*---*-|
E---7---7---7---7---0---0---7---7---7---7---7---7---0---0---2---0---7---7--|
:
# bridge #   *=play x6
G--------------------------------------------------------------------->|
D-------------*------------------------------------------------------->|
A----*---*---2----*---*---*---*---*---*---*---*---*---*---*---*---*--->|
E---4---0--------2---4---0---2---2---7---7---7---7---0---0---7---7---->|
: 
G--------------------|
D--------------------|
A----*---*---*---*---|
E---2---0---7---7----|
:
# verse-2 #   *=play x6
G-------------------------------------------------------------------->|
D-------------------------------------------------------------------->|
A----*---*---*---*---*---*---*---*---*---*---*---*---*---*---*---*--->|
E---7---7---7---7---0---0---7---7---7---7---7---7---0---0---2---0---->|
:
G---------------------------------------------|
D---------------------------------------------|
A----*---*---*---*---*---*---*---*---*--------|
E---7---7---2---0---7---7---2---0---7---777---|
:
            
Hard to play? Try these video lessons and learn fast. | Correct




comments powered by Disqus
↑ Back to top | Tablatures and chords are parodies/interpretations of the original songs. You may use it for private study, scholarship, research or language learning purposes only