>
 >
King

King Guitar Tabs

Teenage Love - King chords, tabs, tablatures, lyrics

Guitar lessons | Add/correct | Request | Top 50 tabs Artists:  A B C D E F G H I J K L M N O P Q R S T U V W X Y Z 0-9

King Guitar Tabs – Teenage Love

CD, Sheet music, Poster

Do you like King? Share with your friends now
ChordsTabsUkulele
"King" by T-Love (Teenage Love)

You can easily work out the rhythm and strumming pattern yourself.
However the lyrics, if you're English like me, are another matter!
I've included the cool bass lick modified so you can play the whole song as solo.

Key:

B7 should be played as:  X21202
G* is another form of G: 320033
C* refers to Cmajor7:    X32000


(Intro)

      Em    Em6 Em7 Em    Em6 Em7  G   Gsus4 G*  G   Gsus4 G*
E|-----0-----0---0---0-----0---0---3-----3---3---3-----3---3-----|
B|-----0-----1---3---0-----1---3---0-----1---3---0-----1---3-----|
G|-----0-----0---0---0-----0---0---0-----0---0---0-----0---0-----|
D|-----2-----2---2---2-----2---2---0-----0---0---0-----0---0-----|
A|-----2-----2---2---2-----2---2---2-----2---2---2-----2---2-----|
E|-----0-----0---0---0-----0---0---3-----3---3---3-----3---3-----|

(Verse 1)

    Em        Em6 Em7        Em      Em6 Em7
Mówiono o nim King w mieście świętej Wieży

  G              Gsus4 G*    G             Gsus4 G*
Pamiętam z podstawówki jak całował się z papieżem

    Em            Em6   Em7   Em7          Em6 Em7
Przejeżdżał też sekretarz gdy przecinano wstęgę

      G              Gsus4 G*  G              Gsus4 G*
Kingy poszedł na wagary      pomarzyć o czymś innym


(Chorus 1)

    Am            Em         Am            Em
Był zawsze trochę z boku, na bakier trochę był

  Am              Em            B7
W szkole nikt nie wiedział czym King naprawde żył


(Verse 2)

To było trochę później już miał przyjaciółkę Ewę

Mieszkali więc bez ślubu i klepali słodką biedę

Dawali czasem czadu bo lubili lekkie dragi

Znajomych było wielu wieczory i poranki


(Chorus 2)

Uważaj na sąsiadów swych, bo lubią dawać cynk

Ty wiesz, kto rządzi w mieście tu biskup z komisarzem - king!


(Bridge)

       D     A     C     C C*C
E|-----2-----0-----0-----0-0-0-----|
B|-----3-----2-----1-----1-0-1-----|
G|-----2-----2-----0-----0-0-0-----|
D|-----0-----2-----2-----2-2-2-----|
A|-----------0-----3-----3-3-3-----|
E|---------------------------------|   x3

                 STOP!
E|-----2-----0-----0-------------------------|
B|-----3-----2-----1-------------------------|
G|-----2-----2-----0-------------------------|
D|-----0-----2-----2-------9p8p7h8p7s5h7-5-0-|
A|-----------0-----3-----7-------------------|
E|-------------------------------------------|


(Verse 3)

Tak mówił mu przyjaciel długi, chudy Lolo

Kiedy wyszli na ulicę zapalić spliffa z colą

Mam dosyć tego miasta czerwono-czarnej maffi

Czy mnie rozumiesz Lolo? Czy wiesz, co mnie trapi?


(Chorus 3)

Tymczasem blada Ewa wytłumaczyć pragnie wszystko,

Bo komisarz wszedł przez okno a spod łóżka wylazł biskup


(Verse 4)

Co masz w kieszeni King? Komisarz spytał w dzwiach

Wy palicie wciąż to świństwo mieliśmy wiele skarg

A biskup łypie z boku to na Kinga, to na Ewę

Wy żyjecie tu bezbożnie myślicie, że nic nie wiem


(Chorus 4)

Za posiadanie zielska ty dostaniesz dziesięć latek

Za nielegalny związek z nią następnych parę kratek


(Bridge)

       D     A     C     C C*C
E|-----2-----0-----0-----0-0-0-----|
B|-----3-----2-----1-----1-0-1-----|
G|-----2-----2-----0-----0-0-0-----|
D|-----0-----2-----2-----2-2-2-----|
A|-----------0-----3-----3-3-3-----|
E|---------------------------------|   x3

                 STOP!
E|-----2-----0-----0---------------|
B|-----3-----2-----1---------------|
G|-----2-----2-----0----(pause)----|
D|-----0-----2-----2---------------|
A|-----------0-----3---------------|
E|---------------------------------|


(Middle 8)

    Am                                                               Em
    (triplet)                            (triplet)
E|---0--0--0---0-----0--0--0--0-----0-----0--0--0---0-----0-0-0-0-----0---|
B|---1--1--1---1-----1--1--1--1-----1-----1--1--1---1-----1-1-1-1-----0---|
G|---2--2--2---2-----2--2--2--2-----2-----2--2--2---2-----2-2-2-2-----0---|
D|---2--2--2---2-----2--2--2--2-----2-----2--2--2---2-----2-2-2-2-----2---|
A|---0--0--0---0-----0--0--0--0-----0-----0--0--0---0-----0-0-0-0-----2---|
E|--------------------------------------------------------------------0---|
 |                                                                        |
E|---12-12-12--10---------------------------------------------------------|
B|-------------------13-13-13-12----13----12-12-12--10----8-8-8-10--------|
G|--------------------------------------------------------------------9---|
D|------------------------------------------------------------------------|
A|--------------------(Gradually gets louder each time)-------------------|
E|------------------------------------------------------------------------|
                                                                        x8

      Em
E|-----0------------------------------------------------------------------|
B|-----0------------------------------------------------------------------|
G|-----0------------------------------------------------------------------|
D|-----2------------------------------------------------------------------|
A|-----2------------------------------------------------------------------|
E|-----0------------------------------------------------------------------|


(Verse 5)

Dziś King siedzi w celi i wspomina dobre dni

Napisał do papieża bardzo długi list

Świateczną wysłał kartkę do samego prezydenta

Lecz nikt o nim już nie mówi nikt o nim nie pamięta


(Chorus 5)

Był zawsze trochę z boku na bakier trochę był

Właściwie nikt nie wiedział czy King naprawdę żył


(Solo)

          Em        Em6 Em7  Em      Em6 Em7
E|-----------------------------------------|
B|-----------------------------------------|
G|----------(tremolo picking)--------------|
D|-----5h7-8888888888888888888p7s5-7-5-----|
A|---7---------------------------------7---|
E|-----------------------------------------|

          G        Gsus4 G*  G      Gsus4 G*
E|-----------------------------------------|
B|-----------------------------------------|
G|----------(tremolo picking)--------------|
D|-----5h7-8888888888888888888p7s5-7-5s9---|
A|---7-------------------------------------|
E|-----------------------------------------|

        Em    Em6 Em7    Em    Em6 Em7
E|-----------------------------------------|
B|-----------------------------------------|
G|------s9p7---9p7-------------------------|
D|-----------9-----9-----s8p7-5-9p7p5------|
A|-----------------------------------------|
E|-----------------------------------------|

      G     Gsus4 G*       G        Gsus4 G*
E|-----------------------------------------|
B|---------------------12r10-8-12-10-------|
G|-------7-8-9~~p7-------------------9-----|
D|-----9-----------------------------------|
A|-----------------------------------------|
E|-----------------------------------------|

       Am     Em      Am      Em
E|-----------------------------------------|
B|-------7~~h8-8~~------7-8-10-8p7---------|
G|-------7~~---7~~------7~~--------9-------|
D|-----------------------------------------|
A|-----------------------------------------|
E|-----------------------------------------|

   Am     Em      B7
E|----------------12-15-15-----------------|
B|---7~~h8-8~~-------------11h12-----------|
G|---7~~---7~~-------------------11h12-9---|
D|-----------------------------------------|
A|-----------------------------------------|
E|-----------------------------------------|


(Outro)

       D     A     C     C C*C
E|-----2-----0-----0-----0-0-0-----|
B|-----3-----2-----1-----1-0-1-----|
G|-----2-----2-----0-----0-0-0-----|
D|-----0-----2-----2-----2-2-2-----|
A|-----------0-----3-----3-3-3-----|
E|---------------------------------|   x3

                 STOP!                      Em
E|-----2-----0-----0-------------------------0-----|
B|-----3-----2-----1-------------------------0-----|
G|-----2-----2-----0-------------------------0-----|
D|-----0-----2-----2-------9p8p7h8p7s5h7-5-0-2-----|
A|-----------0-----3-----7-------------------2-----|
E|-------------------------------------------0-----|


And that's it, hope you like it! Any comments, or if there are any other English 
getting into Polish popular music and trying to sing it (!), get in touch - my email is 
Cheers!





Comments


Popular Teenage Love tabs & chords
Gnijacy Swiat Bass Tabs
Cychowanie Chords
Czwarte Liceum Chords
King Chords
Wychowanie Chords
Czwarte Liceum Tabs
Wychowanie Tabs
Cychowanie Ukulele
King Ukulele
Wychowanie Ukulele


Song lyrics



↑ Back to top | Tablatures and chords are parodies/interpretations of the original songs. You may use it for private study, scholarship, research or language learning purposes only
© 2014 AZChords.com Contact us | Privacy policy | DMCA | Add/correct tabs | Request tabs | Top 50 tabs