» » »

Gnijacy Swiat Bass tabs (ver.1)

Artists:  A B C D E F G H I J K L M N O P Q R S T U V W X Y Z # 

Gnijacy Swiat Bass tabs (ver.1)

Teenage Love
Rating:
0/5 (0 votes)

Hard to play? Try these video lessons and learn fast.
                	Band/Song: T.Love - Gnijący Świat


               E  E  E  E  E  E  Q       E  E  Q    E  E  E  E  35x
G||-------||--------------------------|--------------------------||
D||-------||*--6-----6-----7-----7----|--6-----6----4-----4-----*||
A||-------||*-----7-----7-----7-------|-----7-------------------*||
E||-------||--------------------------|----------------7-----7---||


   E  E  E  E  E  E  E  E     E  E  E  E  E  E  E  E   3x
---------------------------|---------------------------||
*--------------2--2--2--2--|--------------------------*||
*--------------------------|--2--2--2--2--2--2--2--2--*||
---0--0--0--0--------------|---------------------------||


  E  E  E  E  E  E  E  E     E  E  E  E  E  E  E  E   
--------------------------|--------------------------|
--------------2--2--2--2--|--------------------------|
--------------------------|--2--2--2--2--------------|
--0--0--0--0--------------|--------------2--2--2--2--|


    E  E  E  E  E  E  E  E     E  E  E  E  E  E  E  E   
|---------------------------|--------------------------|
|*--2--2--2--2--------------|--------------------------|
|*--------------------------|--2--2--2--2--2--2--2--2--|
|---------------0--0--0--0--|--------------------------|


  E  E  E  E  E  E  E  E     E  E  E  E  E  E  E  E   3x
--------------------------|---------------------------||
--2--2--2--2--------------|--------------------------*||
--------------------------|--2--2--2--2--------------*||
--------------0--0--0--0--|--------------2--2--2--2---||


   E  E  E  E  E  E  E  E     E  E  E  E   E  E  E   E   
---------------------------|----------------------------|
*--2--2--2--2--------------|----------------------------|
*--------------------------|--2--2--2--0s--2--2--0s--2--|
---------------0--0--0--0--|----------------------------|


  Q    Q    Q    Q       W                  
----------------------|-------------------||
--2----2--------------|-------------------||
----------------------|--2----------------||
------------0----0----|-------------------||




Duration Legend
---------------
W - whole
Q - quarter
E - 8th

Tablature Legend
----------------
s - legato slide
            
Hard to play? Try these video lessons and learn fast. | Correct




comments powered by Disqus
↑ Back to top | Tablatures and chords are parodies/interpretations of the original songs. You may use it for private study, scholarship, research or language learning purposes only