» » »

Teenage Fanclub, The Cabbage Chords (ver.1)

Artists:  A B C D E F G H I J K L M N O P Q R S T U V W X Y Z # 

The Cabbage Chords (ver.1)

Teenage Fanclub Tabs
Rating:
0/5 (0 votes)
The Cabbage lessons Tabs too difficult? Try these video lessons and learn fast
                A/G#    D/C#    E7/F
  e|--0--  ---2--  ---0--
  B|--2--  ---3--  ---0--
  G|--2--  ---2--  ---1--
  D|--2--  ------  ---0--
  A|-----  ---4--  ---2--
  E|--4--  ------  ---1--


Intro:
        CHORD
     Bm/D  E7/B   A
  e|--2-----------0--
  B|--3-----0-----2--
  G|--4-----1-----2--
  D|--0-----0-----2--
  A|--------2-----0--
  E|-----------------
      SLIDE TONE on 1st String
  e|--10----7-----9--

A       A/G# F#m E
 Goodbye girl
D      E7/B     A  A/G#
 Where did you go?
F#m       E    D     D/C#
 Woke up this morning
Bm      A      D
 and I didn't know
A    A/G#  F#m  E
 We were together 
D    Bm        A  A/G#
 but now we're not
F#m       E    D     D/C#
 Asked you for nothing
Bm      A      D
 that's what I got

E        E7/F    F#m E        DM7
 It's okay, even better this way
A       A/G#         F#m     E
 That's what they'll tell you
D       E7/B         A
 That's what they'll say
 
A    A/G#  F#m  E
 Are we together?
D        E7/B   A  A/G#
 I guess we're not
F#m   E        D     D/C#
 Do you still want me?
Bm      A      D
 that's what I thought

A     A/G#    F#m   E
 Look in the mirror
D     E7/B   A  A/G#
 and I'm a mess
F#m  E      D     D/C#
 Open the window
Bm       A         D
 forget about the rest

E        E7/F    F#m E        DM7
 It's okay, even better this way
A       A/G#         F#m     E
 That's what they'll tell you
D       E7/B         A
 That's what they'll say

Play Intro Riff

and Solo 
     
  e|------------------------------------
  B|----10---10---10---10---10---10-----
  G|----12c--12c--12c--12c--12c--12c----  
  D|------------------------------------
  A|------------------------------------
  E|------------------------------------  c:choke up
    ----Play this notes over and over.--


E        E7/F    F#m E        DM7
 It's okay, even better this way
A       A/G#         F#m     E
 That's what they'll tell you
D       E7/B         A
 That's what they'll say
            

comments powered by Disqus
↑ Back to top | Teenage Fanclub Chords for The Cabbage. Lyrics for acoustic guitar and electric guitar. Tablatures and chords are parodies/interpretations of the original songs. You may use it for private study, scholarship, research or language learning purposes only