» » »

Teenage Fanclub, Get Funky Bass tabs (ver.1)

Artists:  A B C D E F G H I J K L M N O P Q R S T U V W X Y Z # 

Get Funky Bass tabs (ver.1)

Teenage Fanclub Tabs
Rating:
0/5 (0 votes)
Get Funky lessons Tabs too difficult? Try these video lessons and learn fast
                Bass Performance: G. Love
                  This tab is property of the author and should be used
		  for educational purposes only.
---
Strings: D ,A ,D ,G 
Symbols explanations:
  H: hammer on  P: pull off
  +: slap       .: pop
  \: slide up   /: slide down
  --x~~x~~x: triplets

|    q  q  q  q  q  q e. e. e. e.  e  e  e  e    x6
G |----------------------------------------------|------------------------
D |*--------------------------------------------*|------------------------
A |*-5--5--------------------0--3--0--3--4------*|------------------------
D |--------3--3-----3--5--5----------------------|------------------------
                r                          r                             

|     q  q  q  q  q  q  q  q  q  q  q  q         x7                         
G |----------------------------------------------|------------------------
D |*--------------------------------------------*|------------------------
A |*-------------------0--0--3--4--5------------*|------------------------
D |--0--0--3--4--5-------------------------------|------------------------
                    r                 r                                  

|    q  q  q  q  q  q e. e. e. e.  e  e  e  e    x2
G |----------------------------------------------|------------------------
D |*--------------------------------------------*|------------------------
A |*-5--5--------------------0--3--0--3--4------*|------------------------
D |--------3--3-----3--5--5----------------------|------------------------
                r                          r                             

|   q  q  q  q  q  q e. e. e. e.  e  e  e  e    
G ------------------------------------------------------------------------
D ------------------------------------------------------------------------
A --5--5--------------------0--3--0--3--4--5------------------------------
D --------3--3-----3--5--5------------------------------------------------
               r                                                         

That's all.
Now a funkier way

|   q  q  q  q  q  q  q  e  e  e  e  e  e                                 
G --------------------------3-----3---------------------------------------
D ------------------------------------------------------------------------
A --5--5-----------------0-----0-----4------------------------------------
D --------3--3-----5--5---------------------------------------------------
   +  +  +  +  r  +  +  +  .  +  .  +  r                                 

|   q  q  q  q  q  q  q  q  q  q  q                                       
G ------------------------------------------------------------------------
D ------------------------------------------------------------------------
A --------------------0--0--3--4--5---------------------------------------
D --0--0--3--4--5---------------------------------------------------------
   +  +  +  +  +  r  +  +  +  +  +
            
Submit corrections

comments powered by Disqus
↑ Back to top | Teenage Fanclub Bass for Get Funky. Lyrics for acoustic guitar and electric guitar. Tablatures and chords are parodies/interpretations of the original songs. You may use it for private study, scholarship, research or language learning purposes only