» » »

Teenage Fanclub, December Tabs (ver.1)

Artists:  A B C D E F G H I J K L M N O P Q R S T U V W X Y Z # 

December Tabs (ver.1)

Teenage Fanclub Tabs
 Rating:
4.2/5 (5 votes)
December lessons Tabs too difficult? Try these video lessons and learn fast
1
                #------------------------------------------------------------------------------##
#

# For the latest collection of Teenage Fanclub chords, go to
#
# If you have any corrections or additions to this file, please email them
#

"December"



Riff (played over ever  C F  progression in song):

     C                F           C                F
e  -----0-------------1--------|-----0-------------1--------|
B  --------1-------------1-----|--------1-------------1-----|
G  --0--------0--0h2--------2--|--0--------0--0h2--------2--|
D  ----------------------------|----------------------------|
A  ----------------------------|----------------------------|
E  ----------------------------|----------------------------|

     C               F            C                F
e  -----0-------------1--------|-----0-------------1-------1--|
B  --------1-------------1-----|--------1---------------------|
G  --0--------0--0h2--------2--|--0--------0--0h2-----0h2-----|
D  ----------------------------|------------------------------|
A  ----------------------------|------------------------------|
E  ----------------------------|------------------------------|


Intro:  Riff (x 2)   (1st time by itself, 2nd time over chords)


C              F          C       F
I'll take this chance, to tell my friends,
C        F        C     F
what i'm thinking of
C         F              C          F
on second thoughts, i'll think some more,
C            F     C    F
and tell you later on

Dm                  G            Dm     C     G
     she don't even care, but    i      would die for her love


{Riff with chords}


C          F      C         F
My mind is full, of several things,
C     F      C        F
resembling a thought,
C              F         C       F
I'll take this chance to tell my friends
C        F        C    F
what i'm thinking of

Dm                  G            Dm     C     G
       She don't even care, but    i        would die for her love

C              F         C      F
I've had this planned for many years,
C         F     C          F
but now i can't remember,

G           F          C F C F
I wanted to assasinate december
G           F          C F C F
I wanted to assasinate december


Break:   C F C F C F C F C

{Pause}

( notes in harmony ) - fedc

C F C F C F C  {Pause}
C F C F C F C
            
Submit corrections

comments powered by Disqus
↑ Back to top | Teenage Fanclub Tabs for December. Lyrics for acoustic guitar and electric guitar. 1 Tablatures and chords are parodies/interpretations of the original songs. You may use it for private study, scholarship, research or language learning purposes only