» » »

Commercial Alternative Tabs (ver.1)

Artists:  A B C D E F G H I J K L M N O P Q R S T U V W X Y Z # 

Commercial Alternative Tabs (ver.1)

Teenage Fanclub
Rating:
0/5 (0 votes)

Tabs too difficult? Try these video lessons and learn fast.
                #

# For the latest collection of Teenage Fanclub chords, go to
#
# If you have any corrections or additions to this file, please email them
#

"Commercial Alternative"



Intro:

e--------------------|---------------------|-------------------|-
B---9b---9-----------|--9b---9-------------|--9b---9-----------|-
G------------11--9---|------------11---9---|-----------11---9--|-
D--------------------|---------------------|-------------------|-
A--------------------|---------------------|-------------------|-
E--------------------|---------------------|-------------------|-


e---------------------|-
B---9b---9------------|-
G------------11--9\7--|-
D---------------------|-
A---------------------|-
E---------------------|-


INTRO
D  Bm  Em  A
G  *   A  G  D

* : ?? maybe e -3----
             B --3---   3 times
             
VERSE 1
D       Bm          Em           A
I wanna thank you, cause I'm a mess
G       Em         G           A
I wanna thank you, the way you dress
D       Bm         Em            A
I wanna thank you, for staying here
G       Em         G          A
I wanna thank you, I love you dear

CHORUS
D
Now I know you
G      A#        D
like I know you
C#       Bm    A   G  D  G
like I'm going to

VERSE 2
D       Bm         Em          A
I wanna thank you, for staying cool
G       Em         G           A
I wanna thank you, cause I'm a fool
D       Bm         Em             A
I wanna thank you, where have you been?
G       Em         G           A
I wanna thank you, I love your scene

CHORUS

SOLO (  verse pattern)

CHORUS (ending on A)
            
Tabs too difficult? Try these video lessons and learn fast.




comments powered by Disqus
↑ Back to top | Tablatures and chords are parodies/interpretations of the original songs. You may use it for private study, scholarship, research or language learning purposes only