» » »

Teenage Bottlerocket, Welcome To The Nuthouse Tabs (ver.1)

Artists:  A B C D E F G H I J K L M N O P Q R S T U V W X Y Z # 

Welcome To The Nuthouse Tabs (ver.1)

Teenage Bottlerocket Tabs
 Rating:
4/5 (4 votes)
Welcome To The Nuthouse lessons Tabs too difficult? Try these video lessons and learn fast
1
                -------------------------------------------------------------------------------
-------------------------------------------------------------------------------

Tuning: Standard

Intro
e---
B---
G-5-
D-5-
A-3-
E---

Chorus
e--------|
B--------|
G-5------|
D-5--3-5-|
A-3--3-5-|
E----1-3-|

Verse
e-----------|
B-----------|
G-----5-4/5-|
D-7-3-5-4/5-|
A-7-3-3-2/3-|
E-5-1-------|

e-------|
B-------|
G-------|
D-7-3-5-|
A-7-3-5-|
E-5-1-3-|

Solo
(Guitar A)
e-----------------|
B-5-5-5-5--3--5---|
G---------5-----5-|
D-----------------|
A-----------------|
E-----------------|

e--------------------------|
B-8-6-5--------------------|
G------5---5-5-5-5--3--5---|
D-----------------5------5-|
A--------------------------|
E--------------------------|

(Guitar B)
e---------|
B---------|
G-7-------|
D-7-7-9-5-|
A-5-7-9-5-|
E---5-7-3-|

(Both)
e---
B---
G-5-
D-5-
A-3-
E---

Chorus 2
e--------|
B--------|
G-7------|
D-7--5-7-|
A-5--5-7-|
E----3-5-|

Bridge
e---------|
B---------|
G-7-------|
D-7-7-9-5-|
A-5-7-9-5-|
E---5-7-3-|

End
E-----
B-----
G-7-7-
D-7-7-
A-5-5-
E-----

| /  slide up
| \  slide down
| h  hammer-on
| p  pull-off
| ~  vibrato
| +  harmonic
| x  Mute note
===============================================================================
            
Submit corrections

comments powered by Disqus
↑ Back to top | Teenage Bottlerocket Tabs for Welcome To The Nuthouse. Lyrics for acoustic guitar and electric guitar. 1 Tablatures and chords are parodies/interpretations of the original songs. You may use it for private study, scholarship, research or language learning purposes only