» » »

Teenage Bottlerocket, Warning Device Bass tabs (ver.1)

Artists:  A B C D E F G H I J K L M N O P Q R S T U V W X Y Z # 

Warning Device Bass tabs (ver.1)

Teenage Bottlerocket Tabs
 Rating:
4/5 (4 votes)
Warning Device lessons Tabs too difficult? Try these video lessons and learn fast
                Band: Teenage Bottlerocket

> = play 8 times
~ = let ring
. = staccato

Intro

G|-------------|
D|-------------| 
A|-------5>-7>-|  x2
E|-5>-7>-------|

Verse (0:10) x2

G|--------------|
D|--------------| 
A|----7>>---5>>-|
E|-5>>---7>>----|

Then:

Bridge: (0:30)

G|-------7>-9>-|
D|-------------| 
A|-------------|  
E|-5>-7>-------|

G|-------7>-9>-|
D|-7>-9>-------| 
A|-------------|
E|-------------|

Then:

Verse (0:41) x4

Guitar solo: (1:23)

G|-------------------|
D|-------------------| 
A|-0.-pause-5>-0>-7>-|  x2
E|-------------------|

G|-------7>-9>-|
D|-------------| 
A|-------------|  x2
E|-5>-7>-------|
 
G|-2>-4>-7>-9-7-------------|
D|--------------9-7---------| 
A|------------------9-7-----|
E|----------------------9-7-|

G|-------------|
D|-------------| 
A|-------5>-7>-| 
E|-5>-7>-------|


Final Verse: (1:52) 

G|--------------|
D|--------------| 
A|----7>>---5>>-|
E|-5>>---7>>----|

G|----------------|
D|----------------| 
A|----7>>---5>>5~-|
E|-5>>---7>>------|

Pause

End note: (2:20)

G|----|
D|----| 
A|-5~-|
E|----|
            
Submit corrections

comments powered by Disqus
↑ Back to top | Teenage Bottlerocket Bass for Warning Device. Lyrics for acoustic guitar and electric guitar. Tablatures and chords are parodies/interpretations of the original songs. You may use it for private study, scholarship, research or language learning purposes only