» » »

Teenage Bottlerocket, Totally Stupid Tabs (ver.1)

Artists:  A B C D E F G H I J K L M N O P Q R S T U V W X Y Z # 

Totally Stupid Tabs (ver.1)

Teenage Bottlerocket Tabs
 Rating:
4/5 (4 votes)
Totally Stupid lessons Tabs too difficult? Try these video lessons and learn fast
1
                Teenage Bottlerocket's "Totally Stupid" off of their album Warning Device


Intro
e----------------------------------------------------------------------------|
B----------------------------------------------------------------------------|
G-4/555555555555----------------------4/555555555555-------------------------|
D-4/555555555555--33333333-55555555---4/555555555555-33333333-55555555-------|
A-2/333333333333--33333333-55555555---2/333333333333-33333333-55555555-------|
E-----------------11111111-33333333------------------11111111-33333333-------|

And then
Repeat this until the chorus
e-----------------------------------------------------------|
B-----------------------------------------------------------|
G-4/555555555555-----------5555555\4/555555555555-----------|
D-4/555555555555-3333-5555-5555555\4/555555555555-3333-5555-|
A-2/333333333333-3333-5555-3333333\2/333333333333-3333-5555-|
E----------------1111-3333------------------------1111-3333-|

Chorus
e-----------------------------------------------------------------------------|
B-----------------------------------------------------------------------------|
G-------------------555555555555-----------555555555555-----------55555555555-|
D-33333333-55555555-555555555555-3333-5555-555555555555-3333-5555-55555555555-|
A-33333333-55555555-333333333333-3333-5555-333333333333-3333-5555-33333333333-|
E-11111111-33333333--------------1111-3333--------------1111-3333-------------|

e--------------------------|
B--------------------------|
G-----------55555555---5---|
D-3333-5555-55555555-3-5-5-|
A-3333-5555-33333333-3-3-5-|
E-1111-3333----------1---3-|

Back to this
e---------------------------------------------------------------|
B---------------------------------------------------------------|
G-4/555555555555----------------------4/555555555555------------|
D-4/555555555555--33333333-55555555---4/555555555555-33333333-5-| STOP!!!!
A-2/333333333333--33333333-55555555---2/333333333333-33333333-5-|
E-----------------11111111-33333333------------------11111111-3-|

SOLO!
e----------------------------------------------------------------------------|
B----------------------------------------------------------------------------|
G---------------------------------------------------------------5-4----------|
D--2-3-5~--3-2-0~---2-3-5---3-2---------2-3-5~--3-2-0~--2-3-5-------5-3-2----|
A-3-------3--------3------3-----3-0----3-------3-------3------3-----------5~-|
E----------------------------------3~----------------------------------------|

After solo
e----------------------------------------------------------------------------|
B----------------------------------------------------------------------------|
G-4/555555555555----------------------4/555555555555-------------------------|
D-4/555555555555--33333333-55555555---4/555555555555-33333333-55555555-------|
A-2/333333333333--33333333-55555555---2/333333333333-33333333-55555555-------|
E-----------------11111111-33333333------------------11111111-33333333-------|

Repeat until chorus again
e-----------------------------------------------------------|
B-----------------------------------------------------------|
G-4/555555555555-----------5555555\4/555555555555-----------|
D-4/555555555555-3333-5555-5555555\4/555555555555-3333-5555-|
A-2/333333333333-3333-5555-3333333\2/333333333333-3333-5555-|
E----------------1111-3333------------------------1111-3333-|

Chorus
e-----------------------------------------------------------------------------|
B-----------------------------------------------------------------------------|
G-------------------555555555555-----------555555555555-----------55555555555-|
D-33333333-55555555-555555555555-3333-5555-555555555555-3333-5555-55555555555-|
A-33333333-55555555-333333333333-3333-5555-333333333333-3333-5555-33333333333-|
E-11111111-33333333--------------1111-3333--------------1111-3333-------------|

e-----------------------------------------------------------------------------|
B-----------------------------------------------------------------------------|
G-----------55555555-----------55555555-----------55555555-----------55555555-|
D-3333-5555-55555555-3333-5555-55555555-3333-5555-55555555-3333-5555-55555555-|
A-3333-5555-33333333-3333-5555-33333333-3333-5555-33333333-3333-5555-33333333-|
E-1111-3333----------1111-3333----------1111-3333----------1111-3333----------|

e-----------------------------|
B-----------------------------|
G-----------55555555----5-----|
D-3333-5555-55555555--3-5-555-|
A-3333-5555-33333333--3-3-555-|
E-1111-3333-----------1---333-|

2nd solo
e-------5------------------5---------------5------------------5---------|
B-8-8888--8--6-5-6---8-8888--8-6-5-6-8-8888--8--6-5-6---8-8888--8-6-5-6-|
G-----------------------------------------------------------------------|
D-----------------------------------------------------------------------|
A-----------------------------------------------------------------------|
E-----------------------------------------------------------------------|
            
Submit corrections

comments powered by Disqus
↑ Back to top | Teenage Bottlerocket Tabs for Totally Stupid. Lyrics for acoustic guitar and electric guitar. 1 Tablatures and chords are parodies/interpretations of the original songs. You may use it for private study, scholarship, research or language learning purposes only