» » »

Teenage Bottlerocket, Stupid Games Tabs (ver.1)

Artists:  A B C D E F G H I J K L M N O P Q R S T U V W X Y Z # 

Stupid Games Tabs (ver.1)

Teenage Bottlerocket Tabs
 Rating:
4/5 (4 votes)
Stupid Games lessons Tabs too difficult? Try these video lessons and learn fast
1
                .part a 
e|-------------|
B|-------------|
G|-7-----------|
D|-7-----------|
A|-5-----------|
E|-------------|

.part b
e|---------------------------------------|
B|---------------------------------------|
G|-7------7------------------------------|
D|-7-7-5--7-7-5--------------------------|
A|-5-7-5--5-7-5--------------------------|
E|---5-3----5-3--------------------------|

.part c
e|---------------------------------------|
B|---------------------------------------|
G|-4---7--4------------------------------|
D|-4-5-7--4-5-7--------------------------|
A|-2-5-5--2-5-7--------------------------|
E|---3------3-5--------------------------|

.part d
e|---------------------------------------|
B|---------------------------------------|
G|-7------7------4------7----------------|
D|-7-5-7--7-5-7--4-5-7--7-5-7------------|
A|-5-5-7--5-5-7--2-5-7--5-5-7------------|
E|---3-5----3-5----3-5----3-5------------|

.part e
e|---------------------------------------|
B|---------------------------------------|
G|-7------7------4-----7-----------------|
D|-7-5-7--7-5-7--4-5-7-7-----------------|
A|-5-5-7--5-5-7--2-5-7-5-----------------|
E|---3-5----3-5----3-5-------------------|

.solo 
e|-----10-9-7-5-3-2-2-2-3-2-0------------|
B|-2-3-----------------------------------|
G|---------------------------------------|
D|---------------------------------------|
A|---------------------------------------|
E|---------------------------------------|

.solo
e|-------10-9-7-5-3-2-2-2-3-2-0-----5-3-2-------|
B|-3-2-3------------------------3-2-------3-3-5-|
G|----------------------------------------------|
D|----------------------------------------------|
A|----------------------------------------------|
E|----------------------------------------------|

.then play parts a, b, c, d and e

.end.
e|---------------------------------------|
B|---------------------------------------|
G|-7------7------4------7-----7----------|
D|-7-5-7--7-5-7--4-5-7--7-5-7-7----------|
A|-5-5-7--5-5-7--2-5-7--5-5-7-5----------|
E|---3-5----3-5----3-5----3-5------------|
            
Submit corrections

comments powered by Disqus
↑ Back to top | Teenage Bottlerocket Tabs for Stupid Games. Lyrics for acoustic guitar and electric guitar. 1 Tablatures and chords are parodies/interpretations of the original songs. You may use it for private study, scholarship, research or language learning purposes only