» » »

Social Life Tabs (ver.1)

Artists:  A B C D E F G H I J K L M N O P Q R S T U V W X Y Z # 

Social Life Tabs (ver.1)

Teenage Bottlerocket
Rating:
0/5 (0 votes)

Hard to play? Try these video lessons and learn fast.
                Social life by Teenage Bottlerocket from the album Warning Device

Intro
e------------------------------|
B------------------------------|
G-5555555555555555555555555----|
D-5555555555555555555555555----|
A-3333333333333333333333333----|
E------------------------------|

Vocals come in
e-----------------------------------------------------------|
B-----------------------------------------------------------|
G-5555555555555555--------55555555555555555555555555--------|
D-5555555555555555-555555-55555555555555555555555555-555555-|
A-3333333333333333-555555-33333333333333333333333333-555555-|
E------------------333333----------------------------333333-|

Next part
e-------------------------------------------------------------------------|
B-------------------------------------------------------------------------|
G-------------------55555555----------------------------------------------|
D-77777777-55555555-55555555-33333333-77777777-55555555-33333333-55555555-|
A-77777777-55555555-33333333-33333333-77777777-55555555-33333333-55555555-|
E-55555555-33333333----------11111111-55555555-33333333-11111111-33333333-|

Back to this
e-----------------------------------------------------------|
B-----------------------------------------------------------|
G-5555555555555555--------55555555555555555555555555--------|
D-5555555555555555-555555-55555555555555555555555555-555555-|
A-3333333333333333-555555-33333333333333333333333333-555555-|
E------------------333333----------------------------333333-|

Then this
e-------------------------------------------------------------------------|
B-------------------------------------------------------------------------|
G-------------------55555555----------------------------------------------|
D-77777777-55555555-55555555-33333333-77777777-55555555-33333333-55555555-|
A-77777777-55555555-33333333-33333333-77777777-55555555-33333333-55555555-|
E-55555555-33333333----------11111111-55555555-33333333-11111111-33333333-|

Solo 2x
e----------------------------------------------------------------|
B----------------------------------------------------------------|
G----------------------------------------------------------------|
D-5-555555555-5--2-3-5-555555555-5--2-3-5-55555555-5--3-2-00-2---|
A---------------3------------------3-----------------3--------3~-|
E----------------------------------------------------------------|

solo part after that (Its a little bit off but it sounds just right)
e------------------------------------------------------------------|
B------------------------------------------------------------------|
G----------------------------------------------------2------5-4----|
D------5~---5~-3-2---2---------5~---5~-3-2---2-----5---5~-5-----5~-|
A-3~-3----3--------5~-3~--3~-3----3--------5~-3~-3-----------------|
E------------------------------------------------------------------|

After solo
e-----------------------------------------------------------|
B-----------------------------------------------------------|
G-5555555555555555--------55555555555555555555555555--------|
D-5555555555555555-555555-55555555555555555555555555-555555-|
A-3333333333333333-555555-33333333333333333333333333-555555-|
E------------------333333----------------------------333333-|

Then
e-------------------------------------------------------------------------|
B-------------------------------------------------------------------------|
G-------------------55555555----------------------------------------------|
D-77777777-55555555-55555555-33333333-77777777-55555555-33333333-55555555-|
A-77777777-55555555-33333333-33333333-77777777-55555555-33333333-55555555-|
E-55555555-33333333----------11111111-55555555-33333333-11111111-33333333-|

Ending
e-------------------------------------|
B-------------------------------------|
G-55555555----------------------------|
D-55555555-55555555-77777777-33333333-|
A-33333333-55555555-77777777-33333333-|
E----------33333333-55555555-11111111-|

Ending chord
e-----------|
B-----------|
G-5~--------|
D-5~--------|
A-3~--------|
E-----------|
            
Hard to play? Try these video lessons and learn fast. | Correct




comments powered by Disqus
↑ Back to top | Tablatures and chords are parodies/interpretations of the original songs. You may use it for private study, scholarship, research or language learning purposes only