» » »

Teenage Bottlerocket, Skate Or Die Tabs (ver.1)

Artists:  A B C D E F G H I J K L M N O P Q R S T U V W X Y Z # 

Skate Or Die Tabs (ver.1)

Teenage Bottlerocket Tabs
 Rating:
4.4/5 (7 votes)
Skate Or Die lessons Tabs too difficult? Try these video lessons and learn fast
1
                This is a fairly simple punk song. All the notes with a * below them means play 
the note many times, listen to the song to get it exact.

Riff
E---------------------------------------------|
B---------------------------------------------|
G-------6-----6-----9--------6-----6-----9----|
D---7-9---7-9---9-7-----7--9---7-9---9-7------|
A---------------------------------------------|
E---------------------------------------------|

E----------------|
B----------------|
G---11-9-7-6-----| (played last time through)
D------------9---|
A----------------|
E----------------|

Verse Chords
E------------|
B------------|
G------7--9--|
D---7--7--9--|
A---7--5--7--|
E---5--------|
    *  *  *

Chorus
E--------------------------|
B--------------------------|
G-----7-9------9-----7-9---|
D--4--7-9---7--9--4--7-9---|
A--4--5-7---7--7--4--5-7---|
E--2--------5-----2--------|
   *        *  *  *
            |~~~~~~~~~~~|
                  x2
end on
E----|
B----|
G----|
D-7--|
A-7--|
E-5--|
  *

Solo
E----------------------------------------|
B----------------------------------------|
G--9------9-7-6-------6-----6------------|
D----7----------9-7-9-----7-----9-7-6----|
A------9------------------------------7--|
E----------------------------------------|

E----------------------------------|
B----------------------------------|
G--9------9-7-6-------6-----6-9----|
D----7----------9-7-9-----7--------|
A------9---------------------------|
E----------------------------------|

Solo chords
E------------------|
B------------------|
G------7-------9---|
D--4---7---7---9---|
A--4---5---7---7---|
E--2-------5-------|
   *   *   *   *


Quite guitar at end
E-----------------|
B-----------------|
G-------7-6-------|
D---7-------9-7---|
A-----------------|
E-----------------|
    *
            
Submit corrections

comments powered by Disqus
↑ Back to top | Teenage Bottlerocket Tabs for Skate Or Die. Lyrics for acoustic guitar and electric guitar. 1 Tablatures and chords are parodies/interpretations of the original songs. You may use it for private study, scholarship, research or language learning purposes only