» » »

Teenage Bottlerocket, Skate Or Die Bass tabs (ver.1)

Artists:  A B C D E F G H I J K L M N O P Q R S T U V W X Y Z # 

Skate Or Die Bass tabs (ver.1)

Teenage Bottlerocket Tabs
 Rating:
4/5 (5 votes)
Skate Or Die lessons Tabs too difficult? Try these video lessons and learn fast
                ---------------------------------------------------------------------------
---------------------------------------------------------------------------


Tuning:Standard

All the notes with a * below them means play the note many times, listen to the 
song to get the timing exact.


VERSE

G|----------------|
D|----------------|
A|---5--7---------|
E|5---------------|
  *  *  *

PRE-CHORUS

G|----------------|
D|----------------|
A|--57------------|
E|2---------------|
  *

CHORUS

G|----------------|
D|----------------|
A|---7----57------|
E|5-----2---------|
  *  *  *
Play this before the Bridge
G|----|
D|----|
A|----|
E|-5--|
   *

BRIDGE

G|----------------|
D|----------------|
A|---5-----7------|
E|2-----5---------|
  *  *  *  *
Then...
G|----------------|
D|----/14---------|
A|-7--------------|
E|----------------|
   *
            
Submit corrections

comments powered by Disqus
↑ Back to top | Teenage Bottlerocket Bass for Skate Or Die. Lyrics for acoustic guitar and electric guitar. Tablatures and chords are parodies/interpretations of the original songs. You may use it for private study, scholarship, research or language learning purposes only