» » »

Rebound Tabs (ver.1)

Artists:  A B C D E F G H I J K L M N O P Q R S T U V W X Y Z # 

Rebound Tabs (ver.1)

Teenage Bottlerocket
Rating:
0/5 (0 votes)

Hard to play? Try these video lessons and learn fast.
                -------------------------------------------------------------------------------
-------------------------------------------------------------------------------

Tuning: Standard

Listen to song for rhythm        NOTE: There are slight variations
and number of total strums       between parts but still using the
use downstrokes only.            same chords.

..1,2,3,4!

INTRO
e|---------------------------------------------------------------------------|
B|---------------------------------------------------------------------------|
G|---------------------------------------------------------------------------|
D|--8------------------------------------------------------------------------|
A|--8------------------------------------------------------------------------|
E|--6------------------------------------------------------------------------|

e|---------------------------------------------------------------------------|
B|---------------------------------------------------------------------------|
G|-----8--10-----------------------------------------------------------------|
D|--8--8--10-[x4]------------------------------------------------------------|
A|--8--6--8------------------------------------------------------------------|
E|--6------------------------------------------------------------------------|

e|---------------------------------------------------------------------------|
B|---------------------------------------------------------------------------|
G|--8--10--------------------------------------------------------------------|
D|--8--10-8-[x4]-------------------------------------------------------------|
A|--6--8--8------------------------------------------------------------------|
E|--------6------------------------------------------------------------------|

e|---------------------------------------------------------------------------|
B|---------------------------------------------------------------------------|
G|-----8--10-----------------------------------------------------------------|
D|--8--8--10-[x8]------------------------------------------------------------|
A|--8--6--8------------------------------------------------------------------|
E|--6------------------------------------------------------------------------|


| /  slide up
| \  slide down
| h  hammer-on
| p  pull-off
| ~  vibrato
| +  harmonic
| x  Mute note
===============================================================================
            
Hard to play? Try these video lessons and learn fast. | Correct




comments powered by Disqus
↑ Back to top | Tablatures and chords are parodies/interpretations of the original songs. You may use it for private study, scholarship, research or language learning purposes only