» » »

Pull The Plug Tabs (ver.1)

Artists:  A B C D E F G H I J K L M N O P Q R S T U V W X Y Z # 

Pull The Plug Tabs (ver.1)

Teenage Bottlerocket
Rating:
0/5 (0 votes)

Hard to play? Try these video lessons and learn fast.
                Teenage Bottlerocket's "Pull the Plug" from their first album Another Way


Lead intro part
e--------------------------------------------------------------|
B--------------------------------------------------------------|
G--7-77777-6-66666-4-44444444444-7-77777-9-9999-6-7-7777777777-|
D--------------------------------------------------------------|
A--------------------------------------------------------------|
E--------------------------------------------------------------|

intro (play same thing when vocals come in)
e-------------------------------|
B-------------------------------|
G-7-77777-----------------------|
D-7-77777-7-77777-5-55555555555-|
A-5-55555-7-77777-5-55555555555-|
E---------5-55555-3-33333333333-|

2nd lead part
e----------------------------------------------------------------------|
B-------------------------------------------------------------77--77---|
G--7-77777-6-66666-4-44444444444-7-77777-9-9999-6-7-7777777777--77--7~-|
D----------------------------------------------------------------------|
A----------------------------------------------------------------------|
E----------------------------------------------------------------------|

Play this again until the chorus
e-------------------------------|
B-------------------------------|
G-7-77777-----------------------|
D-7-77777-7-77777-5-55555555555-|
A-5-55555-7-77777-5-55555555555-|
E---------5-55555-3-33333333333-|


Chorus "i didnt wanna make a scene"    Chorus lead part
e--------------------------            e---------------|
B--------------------------            B---------------|
G-777777777777-------------            G-7-7-6~-7-7-6~-|
D-777777777777-555555555555            D---------------|
A-555555555555-555555555555            A---------------|
E--------------333333333333            E---------------|

Play this until the end
e---------------------------------|
B---------------------------------|
G-7-77777-------------------------|
D-7-77777-7-77777-5-55555-7-77777-|
A-5-55555-7-77777-5-55555-7-77777-|
E---------5-55555-3-33333-5-55555-|

That's basically it just gotta know when to come in

Lyrics from PLyrics.com

Ran into you, that's when I fell down
A feeling tumbled down, spun around and around
I would have lost my mind if I didn't go
This feeling's going nowhere slow

I think I'd rather fall down dead
Every time you're wearing red
I think of all the times that you took it off
And think of all the times that you blew me off

I didn't wanna make a scene
You pull the plug on the sun if you know what I mean
            
Hard to play? Try these video lessons and learn fast. | Correct




comments powered by Disqus
↑ Back to top | Tablatures and chords are parodies/interpretations of the original songs. You may use it for private study, scholarship, research or language learning purposes only