» » »

Teenage Bottlerocket, Opportunity Tabs (ver.1)

Artists:  A B C D E F G H I J K L M N O P Q R S T U V W X Y Z # 

Opportunity Tabs (ver.1)

Teenage Bottlerocket Tabs
 Rating:
4/5 (4 votes)
Opportunity lessons Tabs too difficult? Try these video lessons and learn fast
1
                -------------------------------------------------------------------------------
-------------------------------------------------------------------------------

Tuning: Standard

..1,2,3,4!

INTRO/OUTRO
e|---------------------------------------------------------------------------|
B|---------------------------------3-3-3-3-3-2-2-2-3-3-3-3-3-5-3-5-----------|
G|-2-2-2-2-2-1-1-1-2-2-2-2-2-------------------------------------------------|
D|---------------------------4-4-4-------------------------------------------|
A|---------------------------------------------------------------------------|
E|---------------------------------------------------------------------------|

e|---------------------------------------------------------------------------|
B|---------------------------------------------------------------------------|
G|-----------------2-2-2-2-2-2-2-2-4-4-4-4-4-4-4-4-7-7-7-7-7-7-7-7-----------|
D|-4-4-4-4-4-4-4-4-2-2-2-2-2-2-2-2-4-4-4-4-4-4-4-4-7-7-7-7-7-7-7-7-----------|
A|-4-4-4-4-4-4-4-4-0-0-0-0-0-0-0-0-2-2-2-2-2-2-2-2-5-5-5-5-5-5-5-5-----------|
E|-2-2-2-2-2-2-2-2-----------------------------------------------------------|


e|---------------------------------------------------------------------------|
B|---------------------------------3-3-3-3-3-2-2-2-5-5-5-5-3~~---------------|
G|-2-2-2-2-2-1-1-1-2-2-2-2-2-------------------------------------------------|
D|---------------------------4-4-4-------------------------------------------|
A|---------------------------------------------------------------------------|
E|---------------------------------------------------------------------------|

e|---------------------------------------------------------------------------|
B|---------------------------------------------------------------------------|
G|-----------------2-2-2-2-2-2-2-2-4-4-4-4-4-4-4-4-7-7-7-7-7-7-7-7-----------|
D|-4-4-4-4-4-4-4-4-2-2-2-2-2-2-2-2-4-4-4-4-4-4-4-4-7-7-7-7-7-7-7-7-----------|
A|-4-4-4-4-4-4-4-4-0-0-0-0-0-0-0-0-2-2-2-2-2-2-2-2-5-5-5-5-5-5-5-5-----------|
E|-2-2-2-2-2-2-2-2-----------------------------------------------------------|

VERSE
e|---------------------------------------------------------------------------|
B|---------------------------------------------------------------------------|
G|---------------------------------2-2-2-2-2-2-2-2-4-4-4-4-4-4-4-4-----------|
D|-4-4-4-4-4-4-4-4-4-4-4-4-4-4-4-4-2-2-2-2-2-2-2-2-4-4-4-4-4-4-4-4-----------|
A|-4-4-4-4-4-4-4-4-4-4-4-4-4-4-4-4-0-0-0-0-0-0-0-0-2-2-2-2-2-2-2-2-----------|
E|-2-2-2-2-2-2-2-2-2-2-2-2-2-2-2-2-------------------------------------------|

CHORUS
e|---------------------------------------------------------------------------|
B|---------------------------------------------------------------------------|
G|-----------------7-7-7-7-7-7-7-7-------------------------------------------|
D|-4-4-4-4-4-4-4-4-7-7-7-7-7-7-7-7-7-7-7-7-7-7-7-7-7-7-7-7-7-7-7-7-----------|
A|-4-4-4-4-4-4-4-4-5-5-5-5-5-5-5-5-7-7-7-7-7-7-7-7-7-7-7-7-7-7-7-7-----------|
E|-2-2-2-2-2-2-2-2-----------------5-5-5-5-5-5-5-5-5-5-5-5-5-5-5-5-----------|

INTRO  x1 [w/ lead]
VERSE  x4
INTRO  x1
VERSE  x4
CHORUS x4
INTRO  x2 [w/out lead]
CHORUS x4
VERSE  x4
OUTRO  x1 [w/out lead]
OUTRO  x1 [w/ lead]

| /  slide up
| \  slide down
| h  hammer-on
| p  pull-off
| ~  vibrato
| +  harmonic
| x  Mute note
===============================================================================
            
Submit corrections

comments powered by Disqus
↑ Back to top | Teenage Bottlerocket Tabs for Opportunity. Lyrics for acoustic guitar and electric guitar. 1 Tablatures and chords are parodies/interpretations of the original songs. You may use it for private study, scholarship, research or language learning purposes only