» » »

Teenage Bottlerocket, On My Own Bass tabs (ver.1)

Artists:  A B C D E F G H I J K L M N O P Q R S T U V W X Y Z # 

On My Own Bass tabs (ver.1)

Teenage Bottlerocket Tabs
 Rating:
4/5 (4 votes)
On My Own lessons Tabs too difficult? Try these video lessons and learn fast
                Band: Teenage Bottlerocket

Please Rate!

> = play about 7 times (it does vary slightly)
. = staccato

Intro

G|-------------|
D|-------------| 
A|-2>----------| x2
E|----4>-0>-2>-|

Verse 1 (0:09)

G|----------|
D|----------| 
A|-2>>------| x4
E|----2>-0>-|

Then:

Intro (0:28)

Verse 2 (0:38)

G|----------|
D|----------| 
A|-2>>------| x2
E|----2>-0>-|

G|----------|
D|----4>-2>-| 
A|-2>>------| x2
E|----------|

Chorus (0:57)

G|-----------|
D|-----------| 
A|-------2>>-| x2
E|-4>-0>-----|

G|------------------|
D|------------------| 
A|-------222--------|
E|-4>-0>-----222-0>-|

G|--------------------------|
D|--------------------------| 
A|-------222222222-----2.---|
E|-0>-2>-----------222---2.-|

Then: 

Intro (1:16)

Bridge (1:26)

G|-----------|
D|-----------| 
A|-2>>>>>>>>-|
E|-----------|

Verse 3 (1:35)

G|----------|
D|----------| 
A|-2>>------| x2
E|----2>-0>-|

G|----------|
D|----4>-2>-| 
A|-2>>------|
E|----------|

G|-------|
D|----4.-| 
A|-2>>---| 
E|-------|

Pause

Final Chorus (1:54) 

G|-----------|
D|-----------| 
A|-------2>>-| x2
E|-4>-0>-----|

G|------------------|
D|------------------| 
A|-------222--------|
E|-4>-0>-----222-0>-|

G|----------------------4>-|
D|-------------------------| 
A|-------2>----------2>----|
E|-0>-2>----0>-0>-2>-------|

G|-------4>-44-33-11----|
D|-2>-4>-------------44-| 
A|----------------------|
E|----------------------|

G|-------4>>-|
D|-2>-4>-----| 
A|-----------|
E|-----------|

G|-------4>-44-33-11----|
D|-2>-4>-------------44-| 
A|----------------------|
E|----------------------|

G|-------444444444-----4.---|
D|-2>-4>-----------444---4.-| 
A|--------------------------|
E|--------------------------|
            
Submit corrections

comments powered by Disqus
↑ Back to top | Teenage Bottlerocket Bass for On My Own. Lyrics for acoustic guitar and electric guitar. Tablatures and chords are parodies/interpretations of the original songs. You may use it for private study, scholarship, research or language learning purposes only