» » »

Not Ok Tabs (ver.1)

Artists:  A B C D E F G H I J K L M N O P Q R S T U V W X Y Z # 

Not Ok Tabs (ver.1)

Teenage Bottlerocket
Rating:
0/5 (0 votes)

Hard to play? Try these video lessons and learn fast.
                -----------------------------------------------------------------------------
-----------------------------------------------------------------------------

Tuning: Standard

I love this song - tried looking for tabs for it but there weren't any so I had to
do it myself. Its pretty easy. Enjoy.


Intro Riff
e|---------5-------------5-------------5-----------------------------------|
B|-----88-8-865------88-8-8656-----88-8-865--------------------------------|
G|--55---------7--55------------55---------75--7--5------------------------|
D|-------------------------------------------------------------------------|
A|-------------------------------------------------------------------------|
E|-------------------------------------------------------------------------|
(on the second time through the intro dont bother with the last 7--5)

Intro/Verse Chords
e|-------------------------------------------------------------------------|
B|-------------------------------------------------------------------------|
G|--5555555555555555-------------------------------------------------------|
D|--5555555555555555-33333333-55555555-------------------------------------|
A|--3333333333333333-33333333-55555555-------------------------------------|
E|-------------------11111111-33333333-------------------------------------|
(ideally all downstrokes if you are punk enough)

Pre-Chorus Chords
e|-------------------------------------------------------------------------|
B|-------------------------------------------------------------------------|
G|--------------------55555555---------------------------------------------|
D|--77777777-55555555-55555555-33333333------------------------------------|
A|--77777777-55555555-33333333-33333333------------------------------------|
E|--55555555-33333333----------11111111------------------------------------|
(repeat x 3 then go to next part)

Pre-Chorus Cont.
e|-------------------------------------------------------------------------|
B|-------------------------------------------------------------------------|
G|-------------------------------------------------------------------------|
D|-5555555555555555-33333333-55555555--------------------------------------|
A|-5555555555555555-33333333-55555555--------------------------------------|
E|-3333333333333333-11111111-33333333--------------------------------------|

Chorus x3 then go to next part
e|-------------------------------------------------------------------------|
B|-------------------------------------------------------------------------|
G|-55555555----------------------------------------------------------------|
D|-55555555-55555555-77777777-33333333-------------------------------------|
A|-33333333-55555555-77777777-33333333-------------------------------------|
E|----------33333333-55555555-11111111-------------------------------------|

e|-------------------------------------------------------------------------|
B|-------------------------------------------------------------------------|
G|-------------------------------------------------------------------------|
D|-2222222222222222-33333333-55555555--------------------------------------|
A|-2222222222222222-33333333-55555555--------------------------------------|
E|-0000000000000000-11111111-33333333--------------------------------------|

Repeat everything again until eventually you get to this part

e|-------------------------------------------------------------------------|
B|-------------------------------------------------------------------------|
G|-55555555555555555555555555555555----------------------------------------|
D|-55555555555555555555555555555555----------------------------------------|
A|-33333333333333333333333333333333----------------------------------------|
E|-------------------------------------------------------------------------|

e|-------------------------------------------------------------------------|
B|-------------------------------------------------------------------------|
G|--------------------5----------------------------------------------------|
D|--77777777-55555555-5-5-333333-------------------------------------------|
A|--77777777-55555555-3-5-333333-------------------------------------------|
E|--55555555-33333333---3-111111-------------------------------------------|

And after that you just repeat the chorus and you are done. Hope its helpful.

| /  slide up
| \  slide down
| h  hammer-on
| p  pull-off
| ~  vibrato
| +  harmonic
| x  Mute note
=============================================================================
            
Hard to play? Try these video lessons and learn fast. | Correct




comments powered by Disqus
↑ Back to top | Tablatures and chords are parodies/interpretations of the original songs. You may use it for private study, scholarship, research or language learning purposes only