» » »

Teenage Bottlerocket, Go Away Tabs (ver.1)

Artists:  A B C D E F G H I J K L M N O P Q R S T U V W X Y Z # 

Go Away Tabs (ver.1)

Teenage Bottlerocket Tabs
Rating:
0/5 (0 votes)
Hard to play? Try these video lessons and learn fast.
                Teenage Bottlerocket
Total

Intro
e---------------------------------------------|
B---------------------------------------------|
G--------9---5--------------------------------|
D----5---9---5--------------------------------| x2
A----5---7---3--------------------------------|
E----3----------------------------------------|

Verse
e---------------------------------------------|
B---------------------------------------------|
G--------7---9---5----------------------------|
D----5---7---9---5----------------------------|
A----5---5---7---3----------------------------|
E----3----------------------------------------|    ]
                                                x2
e---------------------------------------------|    ]
B---------------------------------------------|
G--------7---5---5----------------------------|
D----5---7---5---5----------------------------|
A----5---5---3---3----------------------------|
E----3----------------------------------------|

Intro Again x2
Verse x2

Bridge
e---------------------------------------------|
B---------------------------------------------|
G--------5---7---5----------------------------|
D----5---5---7---5----------------------------|
A----5---3---5---3----------------------------|
E----3----------------------------------------|

e---------------------------------------------|
B---------------------------------------------|
G--------5---7--------------------------------|
D----5---5---7--------------------------------|
A----5---3---5--------------------------------|
E----3----------------------------------------|

Solo
e--------------------------------------------------|
B--------------------------------------------------|
G-777777-5-4-5--777777-5-4-5--777777-5-4-2-2h4p0---|
D--------------------------------------------------|
A--------------------------------------------------|
E--------------------------------------------------|

e--------------------------------------------------|
B--------------------------------------------------|
G-777777-5-4-5--1212121212-9-7--777777-5-4-2-2h4p0-|  Those are 12's
D--------------------------------------------------|
A--------------------------------------------------|
E--------------------------------------------------|

Verse Again x2
Bridge Again x4
Intro Again x2

End with
e--------------------------------------------------|
B--------------------------------------------------|
G----7-7-------------------------------------------|
D----7-7--5----------------------------------------|
A----5-5--5----------------------------------------|
E---------3----------------------------------------|

Another kickass punk song from a kickass punk band.

Give me some feedback.

-matt
            

comments powered by Disqus
↑ Back to top | Teenage Bottlerocket Tabs for Go Away. Lyrics for acoustic guitar and electric guitar. Tablatures and chords are parodies/interpretations of the original songs. You may use it for private study, scholarship, research or language learning purposes only