» » »

Gave You My Heart Tabs (ver.1)

Artists:  A B C D E F G H I J K L M N O P Q R S T U V W X Y Z # 

Gave You My Heart Tabs (ver.1)

Teenage Bottlerocket
Rating:
0/5 (0 votes)

Hard to play? Try these video lessons and learn fast.
                -----------------------------------------------------------------------------
-----------------------------------------------------------------------------

Tuning: Standard

 (Intro. 4x)      (verse 2x)
e|--------------|------------------------------------|
B|--------------|------------------------------------|
G|--------------|------------------7777777777777777--|
D|--5/77777777--|-7777777777777777-7777777777777777--|
A|--5/77777777--|-7777777777777777-5555555555555555--|
E|--3/55555555--|-5555555555555555-------------------|

(Chorus)
e|----------------------------------------------------------------------|
B|----------------------------------------------------------------------|
G|-----------99999999---------77777777----------7777-9999----------9999-|
D|--77777777-99999999-4444444-77777777-77777777-7777-9999-7777777--9999-|
A|--77777777-77777777-4444444-55555555-77777777-5555-7777-7777777--7777-|
E|--55555555----------2222222----------55555555-----------5555555-------|

(Bridge 2x) *on the second time do -----------------vvvvvv
e|---------------------------------------------|  |--------------------|
B|---------------------------------------------|  |--------------------|
G|--11-11-11-11-11-11-11-11-77777777-----------|  |--9999999999999999--|
D|--11-11-11-11-11-11-11-11-77777777-*77777777-|  |--9999999999999999--|
A|--9--9--9--9--9--9--9--9--55555555-*77777777-|  |--7777777777777777--|
E|-----------------------------------*55555555-|  |--------------------|

 (Solo 2x) *The background is just the chorus repeating.
e|------------------------|  |--------------------|
B|-------------------5----|  |--------------------|
G|-7-6-4-6---7-6-4-6---2--|  |--------------------|
D|------------------------|  |--7777777777777777--|
A|------------------------|  |--7777777777777777--|
E|------------------------|  |--5555555555555555--|

(Final verse 2x)
e|-------------------------------------|
B|-------------------------------------|
G|-------------------9999999999999999--|
D|--9999999999999999-9999999999999999--|
A|--9999999999999999-7777777777777777--|
E|--7777777777777777-------------------|
 
(Final Chorus)repeat until end of song. * as necessary
e|-------------------------------------------------------------------------|
B|-------------------------------------------------------------------------|
G|-----------11-11-11-11-11-11-11-11----------999999999----------9999-*11--|
D|--99999999-11-11-11-11-11-11-11-11-66666666-999999999-99999999-9999-*11--|
A|--99999999-9--9--9--9--9--9--9--9--66666666-777777777-99999999-7777-*9---|
E|--77777777-------------------------44444444-----------77777777-----------|
            
Hard to play? Try these video lessons and learn fast. | Correct




comments powered by Disqus
↑ Back to top | Tablatures and chords are parodies/interpretations of the original songs. You may use it for private study, scholarship, research or language learning purposes only