» » »

Blood Bath At Burger King Tabs (ver.1)

Artists:  A B C D E F G H I J K L M N O P Q R S T U V W X Y Z # 

Blood Bath At Burger King Tabs (ver.1)

Teenage Bottlerocket
Rating:
5/5 (2 votes)

Hard to play? Try these video lessons and learn fast.
                -----------------------------------------------------------------------------
-------------------------------------------------------------------------------

Tuning:  Standard

Intro:

e|----------------------------------------------------------------------------------------|
B|--2-2-2--------2-2-2----2-5-3-2---------------------------------------------------------|
G|---2-2-2-2-2----2-2-222---------2--4-------------------------------------------------=--|
D|----------------------------------------------------------------------------------------|
A|----------------------------------------------------------------------------------------|
E|----------------------------------------------------------------------------------------|

Verse (Rythym not included)

e|--------------------------------------------------------------------------------|
B|--------------------------------------------------------------------------------|
G|-----------7--------9-----------------------------------------------------------|
D|-7---------7--------9-----------------------------------------------------------|
A|-7---------5--------7-----------------------------------------------------------|
E|-5------------------------------------------------------------------------------|

Prechorus

e|---------------------------------------------------------------------------------|
B|---------------------------------------------------------------------------------|
G|-7--------9---------7----------9-------------------------------------------------|
D|-7--------9---------7----------9-------------------------------------------------|
A|-5--------7---------5----------7-------------------------------------------------|
E|---------------------------------------------------------------------------------|


Chorus and Bridge

e|---------------------------------------------------------------------------------|
B|---------------------------------------------------------------------------------|
G|---------9----------------7------------------------------------------------------|
D|-7-------9-------4--------7------------------------------------------------------|
A|-7-------7-------4--------5------------------------------------------------------|
E|-5---------------2---------------------------------------------------------------|

| /  slide up
| \  slide down
| h  hammer-on
| p  pull-off
| ~  vibrato
| +  harmonic
| x  Mute note
===============================================================================
            
Hard to play? Try these video lessons and learn fast. | Correct




comments powered by Disqus
↑ Back to top | Tablatures and chords are parodies/interpretations of the original songs. You may use it for private study, scholarship, research or language learning purposes only