» » »

Teenage Bottlerocket, Another Way Tabs (ver.1)

Artists:  A B C D E F G H I J K L M N O P Q R S T U V W X Y Z # 

Another Way Tabs (ver.1)

Teenage Bottlerocket Tabs
Rating:
0/5 (0 votes)
Another Way lessons Tabs too difficult? Try these video lessons and learn fast
                ------------------------------------------------------------------
------------------------------------------------------------------

Tuning: Standard

Simple to play, but listen to the song for
rhythm, number of strums and when to play what.

..1,2,3,4!

e|-0-0-0-0-0-0-0-0-3-3-3-3-3-3-3-3-3-1-1-1-1-1-1-1-1-------------|
B|-1-1-1-1-1-1-1-1-1-1-1-1-1-1-1-1-1-1-1-1-1-1-1-1-1-------------|
G|---------------------------------------------------------------|
D|---------------------------------------------------------------|
A|---------------------------------------------------------------|
E|---------------------------------------------------------------|

e|---------------------------------------------------------------|
B|---------------------------------------------------------------|
G|-5-5-5-5-5-5-5-5-----------------------------------------------|
D|-5-5-5-5-5-5-5-5-3-3-3-3-3-3-3-3-------------------------------|
A|-3-3-3-3-3-3-3-3-3-3-3-3-3-3-3-3-------------------------------|
E|-----------------1-1-1-1-1-1-1-1-------------------------------|

| /  slide up
| \  slide down
| h  hammer-on
| p  pull-off
| ~  vibrato
| +  harmonic
| x  Mute note
=================================================================
            
Submit corrections

comments powered by Disqus
↑ Back to top | Teenage Bottlerocket Tabs for Another Way. Lyrics for acoustic guitar and electric guitar. Tablatures and chords are parodies/interpretations of the original songs. You may use it for private study, scholarship, research or language learning purposes only