» » »

Ted Nugent, Stormtroopin' Tabs (ver.1)

Artists:  A B C D E F G H I J K L M N O P Q R S T U V W X Y Z # 

Stormtroopin' Tabs (ver.1)

Ted Nugent Tabs
 Rating:
4/5 (4 votes)
Stormtroopin' lessons Tabs too difficult? Try these video lessons and learn fast
1
                Ted Nugent
"Stormtroopin'"
As usual, I tabbed this one out by ear.

Palm mute all the single open A's.

Main Riff:
(Verse & Chorus)       
E-------------------|--------------------|--------------------|-------------
B-------------------|--------------------|--------------------|-------------
G---------5---7-----|---------5---7------|---------5---7------|-----------0-
D--5h7----5---7-----|--5h7----5---7------|--5h7----5---7------|-----0---2---
A--0---0----0---0-0-|--0---0----0---0-0--|--0----0---0---0-0--|---2---3-----
E-------------------|--------------------|--------------------|-3-----------
       
Pre-Chorus 1
E-0-0-0-0-0-0--12--12--12--12--------------
B-0-0-0-0-0-0--15b-15b-15b-15b-------------
G-1-1-1-1-1-1------------------------------
D-2-2-2-2-2-2------------------------------
A-2-2-2-2-2-2------------------------------
E-0-0-0-0-0-0------------------------------

Pre-Chorus 2
E-------------------------------------------------------------
B-------------------------------------------------------------
G-7-7-7-7-7-9-10-10-10-10-10-12/-5-5-5-5-5-7-8-8-8-8-8-10/----
D-7-7-7-7-7-9-10-10-10-10-10-12/-5-5-5-5-5-7-8-8-8-8-8-10/----
A-5-5-5-5-5-7-8--8--8--8--8--10/-3-3-3-3-3-5-6-6-6-6-6-8/-----
E-------------------------------------------------------------

Solo:
(2 gtrs.)

Gtr. 1 
E--5-----------------|--5-----------------|--5-----------------|--5-8-7-5-8-7-5-----
B--5-----------------|--5-----------------|--5-----------------|--5-8-7-5-8-7-5-----
G----7-5h7p5---5b----|----7-5h7p5---5b----|----7-5h7p5---5b----|--------------------
D------------7----7--|------------7----7--|------------7----7--|--------------------
A--------------------|--------------------|--------------------|--------------------
E--------------------|--------------------|--------------------|--------------------

Gtr. 2 - STARTS OUT DOUBLING GTR. 1 BUT THEN GOES INTO SOMETHING LIKE:
E------------------------------8b10r8-5---------------------------------8/10-8------
B-8b10r8-5-----8b10r8-5------------------8b10-10-10r8----8b10-10-10r8----------10-8-
G----------7-5----------7-5---------------------------5---------------5-------------
D---------------------------7-------------------------------------------------------
A-----------------------------------------------------------------------------------
E-----------------------------------------------------------------------------------

E----------------15~15~15~15~15~15~15~15~15~--17~17~17~17~----------------
B-12b14-12b14-------------------------------------------------------------
G--------------------------------------------------------------------------
D--------------------------------------------------------------------------
A--------------------------------------------------------------------------
E---------------------------------------------------------------------------

There's a lot more stuff improvised in between there, I'm just trying to get the jist of it.

So the order goes:

Intro(x2)
Verse(x2)
Pre Chorus 1(x1)
Chorus(x2)
Verse(x2)
Pre-Chorus 2(x2)
Pre-Chorus 1(x1)
Chorus(x2)
Solo
Verse(x2)
Chorus(Keep repeating and fade)
            
Submit corrections

comments powered by Disqus
↑ Back to top | Ted Nugent Tabs for Stormtroopin'. Lyrics for acoustic guitar and electric guitar. 1 Tablatures and chords are parodies/interpretations of the original songs. You may use it for private study, scholarship, research or language learning purposes only