» » »

Gonzo Tabs (ver.1)

Artists:  A B C D E F G H I J K L M N O P Q R S T U V W X Y Z # 

Gonzo Tabs (ver.1)

Ted Nugent
Rating:
0/5 (0 votes)

Hard to play? Try these video lessons and learn fast.
                |----Ted Nugent----|
|------Gonzo-------|
|Double Live Gonzo!|

|-Grant Honsowetz--|


Intro:
Repeat 2x
|----------------------------|
|----------------------------|
|-----------------------7--9-|
|----------------5-6-7--7--9-|
|----------5-6-7--------5--7-|
|--4-5-6-7-------------------|

Main Riff:
Palm mutes while holding the fingering for the E power chord. Should just 
come naturally. This is basically Ted's main riff part, along with Derek St.
 Holmes rhythm part through most of the song.
|------------------------------------------------------|
|------------------------------------------------------|
|-7-/9-9---9-------7-/9-9---9-------7-/9-9---9---------|
|-7-/9-9---9-------7-/9-9---9-------7-/9-9---9---------|
|-5-/7-7-x-7-x-x-x-5-/7-7-x-7-x-x-x-5-/7-7-x-7-x-x-x---|
|------------------------------------------------------|

|-----------------------|
|-----------------------|
|7-/9-9---9-----9-7-7-7-|
|7-/9-9---9-----9-7-7-7-|
|5-/7-7-x-7-x-x-7-5-5-5-|
|-----------------------|

Solo fill:
x3
|-/17--17--17--17--17---|
|-/15--15--15--15--15---|
|-/16--16--16--16--16---|
|-----------------------|
|-----------------------|
|-----------------------|

|-15--15--15--|
|-13--13--13--|
|-14--14--14--|
|-------------|
|-------------|
|-------------|

Breakdown before main riff repeats:
|----------------------|
|----------------------|
|--7--\5-----5---\4----|
|--7--\5-----5---\4----|
|--9--\7-----5---\2----|
|----------------------|

I don't have the skill nor the time to tab out the more complex solo fills,
 but it is in E, so use the E pentatonic scale past the twelfth fret to 
achieve the effect. If you have any questions, comments, or revisions, email
 course of a year or so of watching rare live footage and watching the few 
            
Hard to play? Try these video lessons and learn fast. | Correct




comments powered by Disqus
↑ Back to top | Tablatures and chords are parodies/interpretations of the original songs. You may use it for private study, scholarship, research or language learning purposes only