» » »

Cat Scratch Fever Tabs (ver.4)

Artists:  A B C D E F G H I J K L M N O P Q R S T U V W X Y Z # 

Cat Scratch Fever Tabs (ver.4)

Ted Nugent
Rating:
3/5 (11 votes)

Hard to play? Try these video lessons and learn fast.
                (Intro)
^= bend
h= hammer
~= multiple bends


E--2^------------------------------------2^-----------|
B--4^------------------------------------4^-----------|
G-----2—4-55--2-4h2-5----2-4-55--5h4h2-2--------------|
D-----2-4-55--2-4h2-5----2-4-55--5h4h2-2--------------|
A-----0------------------0----------------------------|
E-----------------------------------------------------|


E-----------------------------------------------------|
B-----------------------------------------------------|
G--2-4-55--2-4h2-5------2-4-55--5h4h2-2---------------|
D--2-4-55--2-4h2-5------2-4-55--5h4h2-2---------------|
A--0--------------------0-----------------------------|
E------------------0-23-----------------0-23----------|


E-----------------------------------------------------|
B---------------------------------------12^14h12-10~~-|
G--2-4-55--2-4h2-5------2-4-55--5h4h2-2---------------|
D--2-4-55--2-4h2-5------2-4-55--5h4h2-2---------------|
A--0--------------------0-----------------------------|
E------------------0-23-------------------------------|
            
Hard to play? Try these video lessons and learn fast. | Correct




comments powered by Disqus
↑ Back to top | Tablatures and chords are parodies/interpretations of the original songs. You may use it for private study, scholarship, research or language learning purposes only