» » »

Cat Scratch Fever Bass tabs (ver.2)

Artists:  A B C D E F G H I J K L M N O P Q R S T U V W X Y Z # 

Cat Scratch Fever Bass tabs (ver.2)

Ted Nugent
Rating:
0/5 (0 votes)

Hard to play? Try these video lessons and learn fast.
                okay this actually a very easy song for bass and i play it all the time in my band, so 
should be pretty correct, if there's any errors please please tell me

1st guitar plays intro once than as drums come in and hit the crash you do this:

G-----------|
D-----------|
A-----------|
E-----5-----|

guitar plays intro one more time on the intro than you come in with the guitar as the 
come in and play this,

G---------------------------------------------------------|
D---------------------------------------------------------|
A---------------------------------------------------------|
E---0-3-4-5-5-5-5-5-5-5-5-5-5-5-5-5-5-5-5-5-5-5-5-5-5-5-5-|
           &1&2&3&4&1&2&3&4&1&2&3&4- and so on, you do this for about 22 secs.


then once the singing comes in you do this


G------------------------------|
D------------------------------|
A-----------------------555----|
E-----5-5-55-5-5-555-33-----5--| x2


and do this again for about another 22 seconds
G---------------------------------------------------------------|
D---------------------------------------------------------------|
A---------------------------------------------------------------|
E---0-3-4-5-5-5-5-5-5-5-5-5-5-5-5-5-5-5-5-5-5-5-5-5-5-5-5-5-5-5-|


and then do this again

G-------------------------------|
D-------------------------------|
A-----------------------555-----|
E-----5-5-55-5-5-555-33-----5---|x2

and once again

G-------------------------------------------------------------------|
D-------------------------------------------------------------------|
A-------------------------------------------------------------------|
E---0-4-3-5-5-5-5-5-5-5-5-5-5-5-5-5-5-5-5-5-5-5-5-5-5-5-5-5-5-5-5-5-|


"There's nothin dangerous"

G--------------------------------------------------------------------------|
D--------------------------------------------------------------------------|
A-----------3-3-3----------3-3-3-----------3-3-3------------5-55-5-55-5-55-|
E--2-2-22-2--------2-2-22-2-------2-2-22-2---------2-2-22-2----------------|


and this during the solo


G-------------------------------------------------------------------|
D-------------------------------------------------------------------|
A-------------------------------------------------------------------|
E---0-3-4-5-5-5-5-5-5-5-5-5-5-5-5-5-5-5-5-5-5-5-5-5-5-5-5-5-5-5-5-5-|

G------------------------------|
D------------------------------|
A-----------------------555----|
E-----5-5-55-5-5-555-33-----5--| x2


G-------------------------------------------------------------------|
D-------------------------------------------------------------------|
A-------------------------------------------------------------------|
E---0-3-4-5-5-5-5-5-5-5-5-5-5-5-5-5-5-5-5-5-5-5-5-5-5-5-5-5-5-5-5-5-|

and then everything stops and its just guitar...

and than once the drums hit the crash you hit this again:

G--------------|
D--------------|
A--------------|
E--------5-----|

then it will be just be drums for about 3 seconds
then goes back into this during the second solo


G-------------------------------------------------------------------|
D-------------------------------------------------------------------|
A-------------------------------------------------------------------|
E---0-3-4-5-5-5-5-5-5-5-5-5-5-5-5-5-5-5-5-5-5-5-5-5-5-5-5-5-5-5-5-5-|

OUTRO

G------------------------------|
D------------------------------|
A------------------------------|
E--5-55-55-55-5-5-5-55------5--|


thanks

ENJOY!!!!!
            
Hard to play? Try these video lessons and learn fast. | Correct




comments powered by Disqus
↑ Back to top | Tablatures and chords are parodies/interpretations of the original songs. You may use it for private study, scholarship, research or language learning purposes only