>
 >
Cat Scratch Fever

Cat Scratch Fever Bass Tabs

Ted Nugent - Cat Scratch Fever chords, tabs, tablatures, lyrics

Guitar lessons | Add/correct | Request | Top 50 tabs Artists:  A B C D E F G H I J K L M N O P Q R S T U V W X Y Z 0-9

Cat Scratch Fever Bass Tabs – Ted Nugent

CD, Sheet music, Poster

Do you like Cat Scratch Fever? Share with your friends now
Bass TabsBass Tabs v2ChordsTabsTabs v2Tabs v3Tabs v4Tabs v5Ukulele
                     Ted Nugent - Cat Scratch Fever
                    From the album Cat Scratch Fever


       q       w  w   4x     w               e  e  e  e          e      
G---|--r--||---r--r---||--|----------|-------r-----------|--||----------
D---|--e--||*--e--e--*||--|----------|-------e-----------|--||*---------
A---|--s--||*--s--s--*||--|--0--(0)--|--(0)--s-----------|--||*--0------
E---|--t--||---t--t---||--|----------|-------t--0--3--4--|--||----------
                                                                        

    e  e  e  e  e  e  e     e  e  e  e  e  e  e  e     e  e  e  e  e    
G------------------------|--------------------------|-------------------
D------------------------|--------------------------|-------------------
A---0--0--0--0--0--0--0--|--0--0--0--0--0-----------|--0--0--0--0--0----
E------------------------|-----------------0--3--4--|-------------------
                                                                        

    e  e  e     e  e  e  q  e  e  e   2x       e  e  e  e  e  e  e      
G------------|------------------------||--||----------------------------
D------------|-----------------------*||--||*---------------------------
A---0--0--0--|--3--2--0--0-----------*||--||*--0--0--0--0--0--0--0------
E------------|--------------0--3--4---||--||----------------------------
                                                                        

    e     e  e  e  e  e  e  e  e     e  e  e  e  e  e  e  e     e  e    
G------|--------------------------|--------------------------|----------
D------|--------------------------|-----------------4--7-----|----------
A---0--|--0--0--0--0--0--0--2--3--|-----2--5--2--5--------0--|--0--0----
E------|--------------------------|--3-----------------------|----------
                                                                        

    e  e  h  e  e  e     e  e  e  e  e  e  e  e     e  e  e  e  e  e    
G---------------------|--------------------------|----------------------
D---------------------|--------------------------|----------------------
A---0--0--0-----------|--0--0--0--0--0--0--0--0--|--0--0--0--0--0--0----
E------------0--3--4--|--------------------------|----------------------
                                                                        

    e  e     e  e  e  e  e  e  e  e     e  e  e  e  e  e  e  e     e    
G---------|--------------------------|--------------------------|-------
D---------|-----------------4--7-----|--------------------------|-------
A---2--3--|-----2--5--2--5--------0--|--0--0--0--0--0-----------|--0----
E---------|--3-----------------------|-----------------0--3--4--|-------
                                                                        

    e  e  e  e  e  e  e     e  e  e  e  e  e  e  e     e  e  e  e  e    
G------------------------|--------------------------|-------------------
D------------------------|--------------------------|-------------------
A---0--0--0--0--0--0--0--|--0--0--0--0--0-----------|--0--0--0--0--0----
E------------------------|-----------------0--3--4--|-------------------
                                                                        

    e  e  e     e  e  e  q  e  e  e   2x     e  e  e  e  e  e  e  e     
G------------|------------------------||--|-----------------------------
D------------|-----------------------*||--|-----------------------------
A---0--0--0--|--3--2--0--0-----------*||--|--0--0--0--0--0--0--0--0-----
E------------|--------------0--3--4---||--|-----------------------------
                                                                        

       e  e  e  e  e  e  e  e     e  e  e  e  e  e  e  e     e  e  e    
G---|--------------------------|--------------------------|-------------
D---|--------------------------|--------------------------|-------------
A---|--0--0--0--0--0-----------|--0--0--0--0--0--0--0--0--|--3--2--0----
E---|-----------------0--3--4--|--------------------------|-------------
                                                                        

    h  e         H  e  e     H  e  e     q  e  q  e  e  e     q  e      
G------r--|--||-----------|-----------|--------------------|------------
D------e--|--||-----------|-----------|--------------------|------------
A---0--s--|--||--6--6--6--|--3--3--3--|--6--6--6--6--6--6--|--3--3------
E------t--|--||-----------|-----------|--------------------|------------
                                                                        

    q  e  e  e     q  e  q  e  e  e     q  e  q  e  e  e     q  e  e    
G---------------|--------------------|--------------------|-------------
D---------------|--------------------|--------------------|-------------
A---3--3--3--3--|--6--6--6--6--6--6--|--3--3--3--3--3--3--|--6--6--6----
E---------------|--------------------|--------------------|-------------
                                                                        

    e  e  e  e     h  h     q  q  e  e  e  e           e  e  e  e  e    
G---------------|--------|--------------------||--||--------------------
D---------------|--------|--------------------||--||*-------------------
A---6--6--6--6--|--7--7--|--7--7--7-----------||--||*--0--0--0--0--0----
E---------------|--------|-----------0--3--4--||--||--------------------
                                                                        

    e  e  e     e  e  e  e  e  e  e  e     e  e  e  e  e  e  e  e       
G------------|--------------------------|--------------------------|----
D------------|--------------------------|--------------------------|----
A---0--0--0--|--0--0--0--0--0-----------|--0--0--0--0--0--0--0--0--|----
E------------|-----------------0--3--4--|--------------------------|----
                                                                        

    e  e  e  q  e  e  e   2x  e  e  e  e  e  Q     e  e  e  e  e  e     
G-------------------------||--------------------|-----------------------
D------------------------*||--------------------|-----------------5-----
A---3--2--0--0-----------*||--5--5--5--5--7--7--|--3--3--3--3--5--------
E---------------0--3--4---||--------------------|-----------------------
                                                                        

    q       e  e  e  e  e  e  e  e     e  e  e  e  e  e  e  e     e     
G------||---------------------------|--------------------------|--------
D------||*--------------------------|--------------------------|--------
A---5--||*--0--0--0--0--0--0--0--0--|--0--0--0--0--0-----------|--0-----
E------||---------------------------|-----------------0--3--4--|--------
                                                                        

    e  e  e  e  e  e  e     e  e  e  q  e  e  e   2x  e  e  e  e  e     
G------------------------|------------------------||--------------------
D------------------------|-----------------------*||--------------------
A---0--0--0--0--0--0--0--|--3--2--0--0-----------*||--0--0--0--0--0-----
E------------------------|--------------0--3--4---||--------------------
                                                                        

    e  e  e     e  e  e  e  e  e  e  e     e  e  e  e  e  e  e  e       
G------------|--------------------------|--------------------------|----
D------------|--------------------------|-----------------4--7-----|----
A---0--0--0--|--0--0--0--0--0--0--2--3--|-----2--5--2--5--------0--|----
E------------|--------------------------|--3-----------------------|----
                                                                        

    e  e  e  e  h  e  e  e     e  e  e  e  e  e  e  e     e  e  e  e    
G---------------------------|--------------------------|----------------
D---------------------------|--------------------------|----------------
A---0--0--0--0--0-----------|--0--0--0--0--0--0--0--0--|--0--0--0--0----
E------------------0--3--4--|--------------------------|----------------
                                                                        

    e  e  e  e     e  e  e  e  e  e  e  e     e  e  e  e  e  e  e  e    
G---------------|--------------------------|----------------------------
D---------------|-----------------4--7-----|----------------------------
A---0--0--2--3--|-----2--5--2--5--------0--|--0--0--0--0--0-------------
E---------------|--3-----------------------|-----------------0--3--4----
                                                                        

       e  e  e  e  e  e  e  e     e  e  e  e  e  e  e  e     e  e  e    
G---|--------------------------|--------------------------|-------------
D---|--------------------------|--------------------------|-------------
A---|--0--0--0--0--0--0--0--0--|--0--0--0--0--0-----------|--0--0--0----
E---|--------------------------|-----------------0--3--4--|-------------
                                                                        

    e  e  e  e  e     e  e  e  q  e  e  e         w     w     w         
G------------------|-----------------------|--||--r--|--r--|--r--|------
D------------------|-----------------------|--||--e--|--e--|--e--|------
A---0--0--0--0--0--|--3--2--0--0-----------|--||--s--|--s--|--s--|------
E------------------|--------------0--3--4--|--||--t--|--t--|--t--|------
                                                                        

    w     w                    h     q  e  e  e  e  e  e           e    
G---r--|------|--------|----------|--r--------------------||--||--------
D---e--|------|--------|----------|--e--7--5-----7--5-----||--||*-------
A---s--|--12--|--(12)--|--(12)\0--|--s--------7--------7--||--||*--0----
E---t--|------|--------|----------|--t--------------------||--||--------
                                                                        

    e  e  e  e  e  e  e     e  e  e  q  e  e  e   3x  e  e  e  e  e     
G------------------------|------------------------||--------------------
D------------------------|-----------------------*||--------------------
A---0--0--0--0--0--0--0--|--3--2--0--0-----------*||--0--0--0--0--0-----
E------------------------|--------------0--3--4---||--------------------
                                                                        

    e  e  e     e  e  e  h  e         q  q  e  Q     h  e  Q     h      
G------------|--------------r--|--||--------------|--r--------|--r------
D------------|--------------e--|--||--------------|--e--------|--e------
A---0--0--0--|--3--2--0--0--s--|--||--0--2--3--3--|--s--3--3--|--s------
E------------|--------------t--|--||--------------|--t--------|--t------
                                                                        

    e  Q     h  e  Q     w                             q  q  e  Q       
G---------|--r--------|-----|-------|-------|-------|--------------|----
D---------|--e--------|-----|-------|-------|-------|--------------|----
A---3--3--|--s--3--3--|--0--|--(0)--|--(0)--|--(0)--|--0--0--0--0--|----
E---------|--t--------|-----|-------|-------|-------|--------------|----
                                                                        

            q                                                           
G--------|-----||-------------------------------------------------------
D--------|-----||-------------------------------------------------------
A---(0)--|--0--||-------------------------------------------------------
E--------|-----||-------------------------------------------------------





Comments


Popular Ted Nugent tabs & chords
Free For All Bass Tabs
Snakeskin Cowboys Intro Chords
Damned If Ya Do Intro Tabs
Free For All 1 Tabs
Homebound 1 Tabs
Stormtroopin' Tabs
Tied Up In Love Tabs
Wango Tango Tabs
Snakeskin Cowboys Intro Ukulele
Stranglehold Ukulele


Song lyrics



↑ Back to top | Tablatures and chords are parodies/interpretations of the original songs. You may use it for private study, scholarship, research or language learning purposes only
© 2014 AZChords.com Contact us | Privacy policy | DMCA | Add/correct tabs | Request tabs | Top 50 tabs